ISO-10303-21;
HEADER;
FILE_DESCRIPTION (( 'STEP AP214' ),
    '1' );
FILE_NAME ('1209-Z1P-A.STEP',
    '2013-05-15T14:56:50',
    ( '3DAssist' ),
    ( '' ),
    'SwSTEP 2.0',
    'SolidWorks 2013',
    '' );
FILE_SCHEMA (( 'AUTOMOTIVE_DESIGN' ));
ENDSEC;

DATA;
#1 = DIRECTION ( 'NONE',  ( 1.000000000000000000, 0.0000000000000000000, 0.0000000000000000000 ) ) ;
#2 = VECTOR ( 'NONE', #166, 1000.000000000000000 ) ;
#3 = DIRECTION ( 'NONE',  ( -1.000000000000000000, 0.0000000000000000000, 0.0000000000000000000 ) ) ;
#4 = ORIENTED_EDGE ( 'NONE', *, *, #355, .T. ) ;
#5 = ORIENTED_EDGE ( 'NONE', *, *, #351, .T. ) ;
#6 = LINE ( 'NONE', #167, #2 ) ;
#7 = VECTOR ( 'NONE', #102, 1000.000000000000100 ) ;
#8 = DIRECTION ( 'NONE',  ( -0.0000000000000000000, -0.0000000000000000000, 1.000000000000000000 ) ) ;
#9 = ORIENTED_EDGE ( 'NONE', *, *, #337, .T. ) ;
#10 = CARTESIAN_POINT ( 'NONE',  ( -4.123114548459129100E-016, 3.175426480542943100, 0.0000000000000000000 ) ) ;
#11 = LINE ( 'NONE', #100, #25 ) ;
#12 = CARTESIAN_POINT ( 'NONE',  ( 0.0000000000000000000, 0.0000000000000000000, -1.774600000000001300 ) ) ;
#13 = FACE_OUTER_BOUND ( 'NONE', #171, .T. ) ;
#14 = ORIENTED_EDGE ( 'NONE', *, *, #355, .F. ) ;
#15 = VECTOR ( 'NONE', #252, 1000.000000000000100 ) ;
#16 = LINE ( 'NONE', #254, #28 ) ;
#17 = ORIENTED_EDGE ( 'NONE', *, *, #338, .T. ) ;
#18 = CIRCLE ( 'NONE', #308, 1.250000000000000000 ) ;
#19 = ORIENTED_EDGE ( 'NONE', *, *, #339, .T. ) ;
#20 = ORIENTED_EDGE ( 'NONE', *, *, #352, .T. ) ;
#21 = LINE ( 'NONE', #256, #34 ) ;
#22 = CIRCLE ( 'NONE', #302, 1.250000000000000000 ) ;
#23 = ORIENTED_EDGE ( 'NONE', *, *, #330, .T. ) ;
#24 = ORIENTED_EDGE ( 'NONE', *, *, #344, .T. ) ;
#25 = VECTOR ( 'NONE', #255, 1000.000000000000200 ) ;
#26 = CONICAL_SURFACE ( 'NONE', #312, 1.500000000000000000, 0.9599310885968762600 ) ;
#27 = ORIENTED_EDGE ( 'NONE', *, *, #343, .T. ) ;
#28 = VECTOR ( 'NONE', #265, 1000.000000000000000 ) ;
#29 = LINE ( 'NONE', #261, #39 ) ;
#30 = ORIENTED_EDGE ( 'NONE', *, *, #344, .F. ) ;
#31 = ORIENTED_EDGE ( 'NONE', *, *, #357, .T. ) ;
#32 = CIRCLE ( 'NONE', #301, 1.500000000000000000 ) ;
#33 = ORIENTED_EDGE ( 'NONE', *, *, #329, .F. ) ;
#34 = VECTOR ( 'NONE', #266, 1000.000000000000200 ) ;
#35 = LINE ( 'NONE', #195, #50 ) ;
#36 = ORIENTED_EDGE ( 'NONE', *, *, #349, .F. ) ;
#37 = ADVANCED_BREP_SHAPE_REPRESENTATION ( '1209-Z1P-A', ( #46, #290 ), #298 ) ;
#38 = ORIENTED_EDGE ( 'NONE', *, *, #336, .T. ) ;
#39 = VECTOR ( 'NONE', #269, 1000.000000000000000 ) ;
#40 = ORIENTED_EDGE ( 'NONE', *, *, #330, .F. ) ;
#41 = ORIENTED_EDGE ( 'NONE', *, *, #336, .F. ) ;
#42 = UNCERTAINTY_MEASURE_WITH_UNIT (LENGTH_MEASURE( 1.000000000000000100E-005 ), #203, 'distance_accuracy_value', 'NONE');
#43 = LINE ( 'NONE', #174, #67 ) ;
#44 = UNCERTAINTY_MEASURE_WITH_UNIT (LENGTH_MEASURE( 1.000000000000000100E-005 ), #140, 'distance_accuracy_value', 'NONE');
#45 = LINE ( 'NONE', #268, #52 ) ;
#46 = MANIFOLD_SOLID_BREP ( 'EndChamfer', #87 ) ;
#47 = ORIENTED_EDGE ( 'NONE', *, *, #349, .T. ) ;
#48 = UNCERTAINTY_MEASURE_WITH_UNIT (LENGTH_MEASURE( 1.000000000000000100E-005 ), #149, 'distance_accuracy_value', 'NONE');
#49 = ORIENTED_EDGE ( 'NONE', *, *, #347, .T. ) ;
#50 = VECTOR ( 'NONE', #175, 1000.000000000000000 ) ;
#51 = ORIENTED_EDGE ( 'NONE', *, *, #332, .T. ) ;
#52 = VECTOR ( 'NONE', #194, 1000.000000000000100 ) ;
#53 = LINE ( 'NONE', #198, #58 ) ;
#54 = ORIENTED_EDGE ( 'NONE', *, *, #335, .F. ) ;
#55 = ORIENTED_EDGE ( 'NONE', *, *, #328, .T. ) ;
#56 = LINE ( 'NONE', #200, #62 ) ;
#57 = ORIENTED_EDGE ( 'NONE', *, *, #345, .T. ) ;
#58 = VECTOR ( 'NONE', #199, 1000.000000000000200 ) ;
#59 = LINE ( 'NONE', #202, #65 ) ;
#60 = ORIENTED_EDGE ( 'NONE', *, *, #356, .T. ) ;
#61 = ORIENTED_EDGE ( 'NONE', *, *, #329, .T. ) ;
#62 = VECTOR ( 'NONE', #201, 1000.000000000000200 ) ;
#63 = SURFACE_STYLE_FILL_AREA ( #143 ) ;
#64 = EDGE_LOOP ( 'NONE', ( #109 ) ) ;
#65 = VECTOR ( 'NONE', #238, 1000.000000000000000 ) ;
#66 = CIRCLE ( 'NONE', #300, 1.500000000000000000 ) ;
#67 = VECTOR ( 'NONE', #234, 1000.000000000000100 ) ;
#68 = LINE ( 'NONE', #190, #76 ) ;
#69 = ADVANCED_FACE ( 'NONE', ( #279 ), #213, .T. ) ;
#70 = ADVANCED_FACE ( 'NONE', ( #288 ), #210, .T. ) ;
#71 = LINE ( 'NONE', #172, #78 ) ;
#72 = ADVANCED_FACE ( 'NONE', ( #108 ), #217, .F. ) ;
#73 = CONICAL_SURFACE ( 'NONE', #310, 1.224999999999999400, 0.9599310885968855800 ) ;
#74 = ADVANCED_FACE ( 'NONE', ( #91, #342 ), #225, .F. ) ;
#75 = ADVANCED_FACE ( 'NONE', ( #185 ), #224, .T. ) ;
#76 = VECTOR ( 'NONE', #170, 1000.000000000000000 ) ;
#77 = ADVANCED_FACE ( 'NONE', ( #334 ), #188, .T. ) ;
#78 = VECTOR ( 'NONE', #243, 1000.000000000000000 ) ;
#79 = ADVANCED_FACE ( 'NONE', ( #307, #125 ), #105, .T. ) ;
#80 = ADVANCED_FACE ( 'NONE', ( #130, #359 ), #84, .F. ) ;
#81 = ADVANCED_FACE ( 'NONE', ( #316, #207 ), #73, .F. ) ;
#82 = LINE ( 'NONE', #169, #358 ) ;
#83 = ADVANCED_FACE ( 'NONE', ( #230, #362 ), #26, .F. ) ;
#84 = CYLINDRICAL_SURFACE ( 'NONE', #309, 1.250000000000000000 ) ;
#85 = VERTEX_POINT ( 'NONE', #177 ) ;
#86 = ORIENTED_EDGE ( 'NONE', *, *, #351, .F. ) ;
#87 = CLOSED_SHELL ( 'NONE', ( #80, #79, #74, #69, #77, #72, #70, #112, #75, #81, #83, #95 ) ) ;
#88 = ORIENTED_EDGE ( 'NONE', *, *, #335, .T. ) ;
#89 = ORIENTED_EDGE ( 'NONE', *, *, #346, .T. ) ;
#90 = VERTEX_POINT ( 'NONE', #10 ) ;
#91 = FACE_OUTER_BOUND ( 'NONE', #146, .T. ) ;
#92 = ORIENTED_EDGE ( 'NONE', *, *, #341, .F. ) ;
#93 = LINE ( 'NONE', #251, #7 ) ;
#94 = ORIENTED_EDGE ( 'NONE', *, *, #346, .F. ) ;
#95 = ADVANCED_FACE ( 'NONE', ( #240, #322 ), #97, .F. ) ;
#96 = ORIENTED_EDGE ( 'NONE', *, *, #327, .F. ) ;
#97 = CYLINDRICAL_SURFACE ( 'NONE', #306, 1.500000000000000000 ) ;
#98 = ORIENTED_EDGE ( 'NONE', *, *, #347, .F. ) ;
#99 = ORIENTED_EDGE ( 'NONE', *, *, #353, .T. ) ;
#100 = CARTESIAN_POINT ( 'NONE',  ( 3.755786496842901000E-016, -3.175426480542945300, -1.800000000000000000 ) ) ;
#101 = ORIENTED_EDGE ( 'NONE', *, *, #345, .F. ) ;
#102 = DIRECTION ( 'NONE',  ( -0.8660254037844381500, -0.5000000000000007800, 0.0000000000000000000 ) ) ;
#103 = CARTESIAN_POINT ( 'NONE',  ( 0.0000000000000000000, 0.0000000000000000000, -0.1925570730076688100 ) ) ;
#104 = CARTESIAN_POINT ( 'NONE',  ( 0.0000000000000000000, 0.0000000000000000000, -1.800000000000000000 ) ) ;
#105 = PLANE ( 'NONE',  #311 ) ;
#106 = DIRECTION ( 'NONE',  ( -1.000000000000000000, 0.0000000000000000000, 0.0000000000000000000 ) ) ;
#107 = ORIENTED_EDGE ( 'NONE', *, *, #341, .T. ) ;
#108 = FACE_OUTER_BOUND ( 'NONE', #226, .T. ) ;
#109 = ORIENTED_EDGE ( 'NONE', *, *, #357, .F. ) ;
#110 = ORIENTED_EDGE ( 'NONE', *, *, #353, .F. ) ;
#111 = ORIENTED_EDGE ( 'NONE', *, *, #337, .F. ) ;
#112 = ADVANCED_FACE ( 'NONE', ( #13 ), #183, .T. ) ;
#113 = VERTEX_POINT ( 'NONE', #186 ) ;
#114 = ORIENTED_EDGE ( 'NONE', *, *, #327, .T. ) ;
#115 = EDGE_LOOP ( 'NONE', ( #116, #36, #114, #5 ) ) ;
#116 = ORIENTED_EDGE ( 'NONE', *, *, #339, .F. ) ;
#117 = ORIENTED_EDGE ( 'NONE', *, *, #343, .F. ) ;
#118 = COLOUR_RGB ( '',1.000000000000000000, 1.000000000000000000, 1.000000000000000000 ) ;
#119 = ORIENTED_EDGE ( 'NONE', *, *, #356, .F. ) ;
#120 = ORIENTED_EDGE ( 'NONE', *, *, #352, .F. ) ;
#121 = ORIENTED_EDGE ( 'NONE', *, *, #328, .F. ) ;
#122 = PRODUCT ( '1209-Z1P-A', '1209-Z1P-A', '', ( #134 ) ) ;
#123 = EDGE_LOOP ( 'NONE', ( #33 ) ) ;
#124 = VERTEX_POINT ( 'NONE', #245 ) ;
#125 = FACE_BOUND ( 'NONE', #131, .T. ) ;
#126 = VERTEX_POINT ( 'NONE', #267 ) ;
#127 = VERTEX_POINT ( 'NONE', #249 ) ;
#128 = ORIENTED_EDGE ( 'NONE', *, *, #332, .F. ) ;
#129 = ORIENTED_EDGE ( 'NONE', *, *, #338, .F. ) ;
#130 = FACE_OUTER_BOUND ( 'NONE', #123, .T. ) ;
#131 = EDGE_LOOP ( 'NONE', ( #17 ) ) ;
#132 = APPLICATION_PROTOCOL_DEFINITION ( 'draft international standard', 'automotive_design', 1998, #133 ) ;
#133 = APPLICATION_CONTEXT ( 'automotive_design' ) ;
#134 = PRODUCT_CONTEXT ( 'NONE', #144, 'mechanical' ) ;
#135 = DIRECTION ( 'NONE',  ( 1.000000000000000000, 0.0000000000000000000, 0.0000000000000000000 ) ) ;
#136 = DIRECTION ( 'NONE',  ( 0.0000000000000000000, 0.0000000000000000000, 1.000000000000000000 ) ) ;
#137 = VERTEX_POINT ( 'NONE', #244 ) ;
#138 =( NAMED_UNIT ( * ) SI_UNIT ( $, .STERADIAN. ) SOLID_ANGLE_UNIT ( ) );
#139 =( NAMED_UNIT ( * ) PLANE_ANGLE_UNIT ( ) SI_UNIT ( $, .RADIAN. ) );
#140 =( LENGTH_UNIT ( ) NAMED_UNIT ( * ) SI_UNIT ( .MILLI., .METRE. ) );
#141 = SURFACE_STYLE_USAGE ( .BOTH. , #142 ) ;
#142 = SURFACE_SIDE_STYLE ('',( #63 ) ) ;
#143 = FILL_AREA_STYLE ('',( #150 ) ) ;
#144 = APPLICATION_CONTEXT ( 'automotive_design' ) ;
#145 = APPLICATION_PROTOCOL_DEFINITION ( 'draft international standard', 'automotive_design', 1998, #144 ) ;
#146 = EDGE_LOOP ( 'NONE', ( #19, #107, #27, #24, #101, #89 ) ) ;
#147 =( NAMED_UNIT ( * ) SI_UNIT ( $, .STERADIAN. ) SOLID_ANGLE_UNIT ( ) );
#148 =( NAMED_UNIT ( * ) PLANE_ANGLE_UNIT ( ) SI_UNIT ( $, .RADIAN. ) );
#149 =( LENGTH_UNIT ( ) NAMED_UNIT ( * ) SI_UNIT ( .MILLI., .METRE. ) );
#150 = FILL_AREA_STYLE_COLOUR ( '', #242 ) ;
#151 = CARTESIAN_POINT ( 'NONE',  ( 1.500000000000000000, 0.0000000000000000000, -1.774600000000001300 ) ) ;
#152 = CARTESIAN_POINT ( 'NONE',  ( 1.500000000000000000, 0.0000000000000000000, 0.0000000000000000000 ) ) ;
#153 = DIRECTION ( 'NONE',  ( 1.000000000000000000, 0.0000000000000000000, 0.0000000000000000000 ) ) ;
#154 = DIRECTION ( 'NONE',  ( -0.0000000000000000000, -0.0000000000000000000, 1.000000000000000000 ) ) ;
#155 = CARTESIAN_POINT ( 'NONE',  ( 0.0000000000000000000, 0.0000000000000000000, -1.774600000000001300 ) ) ;
#156 = VERTEX_POINT ( 'NONE', #176 ) ;
#157 = CARTESIAN_POINT ( 'NONE',  ( -1.500000000000000000, 0.0000000000000000000, -1.799999999999999600 ) ) ;
#158 = EDGE_LOOP ( 'NONE', ( #96, #121, #51, #54, #41, #111 ) ) ;
#159 = CARTESIAN_POINT ( 'NONE',  ( 1.250000000000000000, 0.0000000000000000000, -0.1750518845524258700 ) ) ;
#160 = CARTESIAN_POINT ( 'NONE',  ( 0.0000000000000000000, 0.0000000000000000000, 0.0000000000000000000 ) ) ;
#161 = DIRECTION ( 'NONE',  ( 0.0000000000000000000, 0.0000000000000000000, 1.000000000000000000 ) ) ;
#162 = CARTESIAN_POINT ( 'NONE',  ( -2.750000000000000000, -1.587713240271473500, -1.800000000000000000 ) ) ;
#163 = DIRECTION ( 'NONE',  ( 0.0000000000000000000, 0.0000000000000000000, 1.000000000000000000 ) ) ;
#164 = VERTEX_POINT ( 'NONE', #250 ) ;
#165 = CARTESIAN_POINT ( 'NONE',  ( 3.755786496842901000E-016, -3.175426480542945300, -1.800000000000000000 ) ) ;
#166 = DIRECTION ( 'NONE',  ( 0.0000000000000000000, 0.0000000000000000000, 1.000000000000000000 ) ) ;
#167 = CARTESIAN_POINT ( 'NONE',  ( 2.750000000000000000, -1.587713240271472200, -1.800000000000000000 ) ) ;
#168 = DIRECTION ( 'NONE',  ( 0.0000000000000000000, 0.0000000000000000000, 1.000000000000000000 ) ) ;
#169 = CARTESIAN_POINT ( 'NONE',  ( 2.750000000000000000, 1.587713240271470600, -1.800000000000000000 ) ) ;
#170 = DIRECTION ( 'NONE',  ( 0.0000000000000000000, 0.0000000000000000000, 1.000000000000000000 ) ) ;
#171 = EDGE_LOOP ( 'NONE', ( #117, #119, #38, #4 ) ) ;
#172 = CARTESIAN_POINT ( 'NONE',  ( -4.123114548459129100E-016, 3.175426480542943100, -1.800000000000000000 ) ) ;
#173 = EDGE_LOOP ( 'NONE', ( #23 ) ) ;
#174 = CARTESIAN_POINT ( 'NONE',  ( 2.750000000000000000, 1.587713240271470600, 0.0000000000000000000 ) ) ;
#175 = DIRECTION ( 'NONE',  ( 0.0000000000000000000, -1.000000000000000000, 0.0000000000000000000 ) ) ;
#176 = CARTESIAN_POINT ( 'NONE',  ( -2.750000000000000000, -1.587713240271473500, 0.0000000000000000000 ) ) ;
#177 = CARTESIAN_POINT ( 'NONE',  ( 2.750000000000000000, -1.587713240271472200, -1.800000000000000000 ) ) ;
#178 = DIRECTION ( 'NONE',  ( 0.0000000000000000000, 0.0000000000000000000, -1.000000000000000000 ) ) ;
#179 = DIRECTION ( 'NONE',  ( -0.5000000000000003300, -0.8660254037844386000, 0.0000000000000000000 ) ) ;
#180 = CARTESIAN_POINT ( 'NONE',  ( 0.0000000000000000000, 0.0000000000000000000, -25.03750572909317300 ) ) ;
#181 = DIRECTION ( 'NONE',  ( -0.0000000000000000000, -0.0000000000000000000, 1.000000000000000000 ) ) ;
#182 = DIRECTION ( 'NONE',  ( 1.000000000000000000, 0.0000000000000000000, 0.0000000000000000000 ) ) ;
#183 = PLANE ( 'NONE',  #304 ) ;
#184 = CARTESIAN_POINT ( 'NONE',  ( -2.750000000000000000, -1.587713240271473500, -1.800000000000000000 ) ) ;
#185 = FACE_OUTER_BOUND ( 'NONE', #187, .T. ) ;
#186 = CARTESIAN_POINT ( 'NONE',  ( -2.750000000000000000, 1.587713240271469100, -1.800000000000000000 ) ) ;
#187 = EDGE_LOOP ( 'NONE', ( #92, #86, #9, #60 ) ) ;
#188 = PLANE ( 'NONE',  #313 ) ;
#189 = DIRECTION ( 'NONE',  ( 0.8660254037844384900, -0.5000000000000002200, 0.0000000000000000000 ) ) ;
#190 = CARTESIAN_POINT ( 'NONE',  ( -2.750000000000000000, 1.587713240271469100, -1.800000000000000000 ) ) ;
#191 = DIRECTION ( 'NONE',  ( -1.000000000000000000, 0.0000000000000000000, 0.0000000000000000000 ) ) ;
#192 = DIRECTION ( 'NONE',  ( 0.0000000000000000000, -0.0000000000000000000, 1.000000000000000000 ) ) ;
#193 = DIRECTION ( 'NONE',  ( -1.000000000000000000, 0.0000000000000000000, 0.0000000000000000000 ) ) ;
#194 = DIRECTION ( 'NONE',  ( -0.8660254037844381500, -0.5000000000000007800, 0.0000000000000000000 ) ) ;
#195 = CARTESIAN_POINT ( 'NONE',  ( -2.750000000000000000, 1.587713240271469100, 0.0000000000000000000 ) ) ;
#196 = EDGE_LOOP ( 'NONE', ( #129 ) ) ;
#197 = EDGE_LOOP ( 'NONE', ( #61 ) ) ;
#198 = CARTESIAN_POINT ( 'NONE',  ( -2.750000000000000000, -1.587713240271473500, 0.0000000000000000000 ) ) ;
#199 = DIRECTION ( 'NONE',  ( 0.8660254037844384900, -0.5000000000000001100, 0.0000000000000000000 ) ) ;
#200 = CARTESIAN_POINT ( 'NONE',  ( 3.755786496842901000E-016, -3.175426480542945300, 0.0000000000000000000 ) ) ;
#201 = DIRECTION ( 'NONE',  ( 0.8660254037844382600, 0.5000000000000005600, 0.0000000000000000000 ) ) ;
#202 = CARTESIAN_POINT ( 'NONE',  ( 2.750000000000000000, 1.587713240271470600, 0.0000000000000000000 ) ) ;
#203 =( LENGTH_UNIT ( ) NAMED_UNIT ( * ) SI_UNIT ( .MILLI., .METRE. ) );
#204 = CARTESIAN_POINT ( 'NONE',  ( -4.123114548459129100E-016, 3.175426480542943100, -1.800000000000000000 ) ) ;
#205 = FILL_AREA_STYLE_COLOUR ( '', #118 ) ;
#206 = SURFACE_SIDE_STYLE ('',( #273 ) ) ;
#207 = FACE_BOUND ( 'NONE', #197, .T. ) ;
#208 = FILL_AREA_STYLE ('',( #205 ) ) ;
#209 = EDGE_LOOP ( 'NONE', ( #98 ) ) ;
#210 = PLANE ( 'NONE',  #319 ) ;
#211 =( NAMED_UNIT ( * ) PLANE_ANGLE_UNIT ( ) SI_UNIT ( $, .RADIAN. ) );
#212 =( NAMED_UNIT ( * ) SI_UNIT ( $, .STERADIAN. ) SOLID_ANGLE_UNIT ( ) );
#213 = PLANE ( 'NONE',  #320 ) ;
#214 = DIRECTION ( 'NONE',  ( -0.5000000000000008900, 0.8660254037844382600, 0.0000000000000000000 ) ) ;
#215 = DIRECTION ( 'NONE',  ( -0.8660254037844381500, -0.5000000000000007800, 0.0000000000000000000 ) ) ;
#216 = CARTESIAN_POINT ( 'NONE',  ( 2.750000000000000000, 1.587713240271470600, -1.800000000000000000 ) ) ;
#217 = PLANE ( 'NONE',  #318 ) ;
#218 = PRESENTATION_STYLE_ASSIGNMENT (( #239 ) ) ;
#219 = DIRECTION ( 'NONE',  ( 0.5000000000000006700, -0.8660254037844382600, 0.0000000000000000000 ) ) ;
#220 = DIRECTION ( 'NONE',  ( 0.8660254037844382600, 0.5000000000000006700, 0.0000000000000000000 ) ) ;
#221 = DIRECTION ( 'NONE',  ( 0.0000000000000000000, 0.0000000000000000000, -1.000000000000000000 ) ) ;
#222 = DIRECTION ( 'NONE',  ( -1.000000000000000000, 0.0000000000000000000, 0.0000000000000000000 ) ) ;
#223 = DIRECTION ( 'NONE',  ( 0.0000000000000000000, 0.0000000000000000000, 1.000000000000000000 ) ) ;
#224 = PLANE ( 'NONE',  #315 ) ;
#225 = PLANE ( 'NONE',  #317 ) ;
#226 = EDGE_LOOP ( 'NONE', ( #57, #110, #128, #20 ) ) ;
#227 = EDGE_LOOP ( 'NONE', ( #40 ) ) ;
#228 = CARTESIAN_POINT ( 'NONE',  ( -4.336808689942017700E-016, 3.175426480542943100, 0.0000000000000000000 ) ) ;
#229 = CARTESIAN_POINT ( 'NONE',  ( 0.0000000000000000000, 0.0000000000000000000, 0.0000000000000000000 ) ) ;
#230 = FACE_OUTER_BOUND ( 'NONE', #64, .T. ) ;
#231 = DIRECTION ( 'NONE',  ( -0.0000000000000000000, -0.0000000000000000000, 1.000000000000000000 ) ) ;
#232 = CARTESIAN_POINT ( 'NONE',  ( -2.750000000000000000, 1.587713240271469100, -1.800000000000000000 ) ) ;
#233 = EDGE_LOOP ( 'NONE', ( #94, #120, #55, #47 ) ) ;
#234 = DIRECTION ( 'NONE',  ( -0.8660254037844383700, 0.5000000000000003300, 0.0000000000000000000 ) ) ;
#235 = CARTESIAN_POINT ( 'NONE',  ( -1.250000000000000000, 0.0000000000000000000, -1.599548115447571900 ) ) ;
#236 = CARTESIAN_POINT ( 'NONE',  ( 0.0000000000000000000, 0.0000000000000000000, -1.799999999999999600 ) ) ;
#237 = DIRECTION ( 'NONE',  ( 1.000000000000000000, 0.0000000000000000000, 0.0000000000000000000 ) ) ;
#238 = DIRECTION ( 'NONE',  ( 0.0000000000000000000, -1.000000000000000000, 0.0000000000000000000 ) ) ;
#239 = SURFACE_STYLE_USAGE ( .BOTH. , #206 ) ;
#240 = FACE_OUTER_BOUND ( 'NONE', #196, .T. ) ;
#241 = CARTESIAN_POINT ( 'NONE',  ( 3.755786496842901000E-016, -3.175426480542945300, -1.800000000000000000 ) ) ;
#242 = COLOUR_RGB ( '',1.000000000000000000, 1.000000000000000000, 1.000000000000000000 ) ;
#243 = DIRECTION ( 'NONE',  ( 0.0000000000000000000, 0.0000000000000000000, 1.000000000000000000 ) ) ;
#244 = CARTESIAN_POINT ( 'NONE',  ( -2.750000000000000000, 1.587713240271469100, 0.0000000000000000000 ) ) ;
#245 = CARTESIAN_POINT ( 'NONE',  ( 2.750000000000000000, -1.587713240271472200, 0.0000000000000000000 ) ) ;
#246 = CARTESIAN_POINT ( 'NONE',  ( 3.755786496842901000E-016, -3.175426480542945300, 0.0000000000000000000 ) ) ;
#247 = CARTESIAN_POINT ( 'NONE',  ( 3.755786496842901000E-016, -3.175426480542945300, -1.800000000000000000 ) ) ;
#248 = PRESENTATION_STYLE_ASSIGNMENT (( #141 ) ) ;
#249 = CARTESIAN_POINT ( 'NONE',  ( 2.750000000000000000, 1.587713240271470600, -1.800000000000000000 ) ) ;
#250 = CARTESIAN_POINT ( 'NONE',  ( -2.750000000000000000, -1.587713240271473500, -1.800000000000000000 ) ) ;
#251 = CARTESIAN_POINT ( 'NONE',  ( -4.123114548459129100E-016, 3.175426480542943100, -1.800000000000000000 ) ) ;
#252 = DIRECTION ( 'NONE',  ( -0.8660254037844383700, 0.5000000000000003300, 0.0000000000000000000 ) ) ;
#253 = CARTESIAN_POINT ( 'NONE',  ( 2.750000000000000000, 1.587713240271470600, -1.800000000000000000 ) ) ;
#254 = CARTESIAN_POINT ( 'NONE',  ( 2.750000000000000000, 1.587713240271470600, -1.800000000000000000 ) ) ;
#255 = DIRECTION ( 'NONE',  ( 0.8660254037844382600, 0.5000000000000005600, 0.0000000000000000000 ) ) ;
#256 = CARTESIAN_POINT ( 'NONE',  ( -2.750000000000000000, -1.587713240271473500, -1.800000000000000000 ) ) ;
#257 = CARTESIAN_POINT ( 'NONE',  ( 0.0000000000000000000, 0.0000000000000000000, -0.1750518845524258700 ) ) ;
#258 = PRODUCT_DEFINITION_SHAPE ( 'NONE', 'NONE',  #289 ) ;
#259 = DIRECTION ( 'NONE',  ( 0.0000000000000000000, 0.0000000000000000000, -1.000000000000000000 ) ) ;
#260 = DIRECTION ( 'NONE',  ( 1.000000000000000000, 0.0000000000000000000, 0.0000000000000000000 ) ) ;
#261 = CARTESIAN_POINT ( 'NONE',  ( -2.750000000000000000, 1.587713240271469100, -1.800000000000000000 ) ) ;
#262 = CARTESIAN_POINT ( 'NONE',  ( 0.0000000000000000000, 0.0000000000000000000, -1.599548115447571900 ) ) ;
#263 = DIRECTION ( 'NONE',  ( -0.0000000000000000000, -0.0000000000000000000, 1.000000000000000000 ) ) ;
#264 = DIRECTION ( 'NONE',  ( -1.000000000000000000, 0.0000000000000000000, 0.0000000000000000000 ) ) ;
#265 = DIRECTION ( 'NONE',  ( 0.0000000000000000000, -1.000000000000000000, 0.0000000000000000000 ) ) ;
#266 = DIRECTION ( 'NONE',  ( 0.8660254037844384900, -0.5000000000000001100, 0.0000000000000000000 ) ) ;
#267 = CARTESIAN_POINT ( 'NONE',  ( -4.123114548459129100E-016, 3.175426480542943100, -1.800000000000000000 ) ) ;
#268 = CARTESIAN_POINT ( 'NONE',  ( -4.123114548459129100E-016, 3.175426480542943100, 0.0000000000000000000 ) ) ;
#269 = DIRECTION ( 'NONE',  ( 0.0000000000000000000, -1.000000000000000000, 0.0000000000000000000 ) ) ;
#270 = CARTESIAN_POINT ( 'NONE',  ( 2.750000000000000000, 1.587713240271470600, 0.0000000000000000000 ) ) ;
#271 = DIRECTION ( 'NONE',  ( 0.5000000000000004400, 0.8660254037844384900, -0.0000000000000000000 ) ) ;
#272 = DIRECTION ( 'NONE',  ( 0.0000000000000000000, 0.0000000000000000000, -1.000000000000000000 ) ) ;
#273 = SURFACE_STYLE_FILL_AREA ( #208 ) ;
#274 = DIRECTION ( 'NONE',  ( -0.8660254037844383700, 0.5000000000000003300, 0.0000000000000000000 ) ) ;
#275 = CARTESIAN_POINT ( 'NONE',  ( -4.336808689942017700E-016, 3.175426480542943100, -1.800000000000000000 ) ) ;
#276 = CARTESIAN_POINT ( 'NONE',  ( 2.750000000000000000, 1.587713240271470600, -1.800000000000000000 ) ) ;
#277 = DIRECTION ( 'NONE',  ( -1.000000000000000000, 0.0000000000000000000, 0.0000000000000000000 ) ) ;
#278 = DIRECTION ( 'NONE',  ( 0.0000000000000000000, 0.0000000000000000000, 1.000000000000000000 ) ) ;
#279 = FACE_OUTER_BOUND ( 'NONE', #115, .T. ) ;
#280 = DIRECTION ( 'NONE',  ( 1.000000000000000000, 0.0000000000000000000, 0.0000000000000000000 ) ) ;
#281 = EDGE_LOOP ( 'NONE', ( #49 ) ) ;
#282 = VERTEX_POINT ( 'NONE', #247 ) ;
#283 = VERTEX_POINT ( 'NONE', #152 ) ;
#284 = DIRECTION ( 'NONE',  ( 0.0000000000000000000, 0.0000000000000000000, 1.000000000000000000 ) ) ;
#285 = PRODUCT_RELATED_PRODUCT_CATEGORY ( 'part', '', ( #122 ) ) ;
#286 = VERTEX_POINT ( 'NONE', #270 ) ;
#287 = PRODUCT_DEFINITION_FORMATION_WITH_SPECIFIED_SOURCE ( 'ANY', '', #122, .NOT_KNOWN. ) ;
#288 = FACE_OUTER_BOUND ( 'NONE', #354, .T. ) ;
#289 = PRODUCT_DEFINITION ( 'UNKNOWN', '', #287, #305 ) ;
#290 = AXIS2_PLACEMENT_3D ( 'NONE', #160, #136, #135 ) ;
#291 =( GEOMETRIC_REPRESENTATION_CONTEXT ( 3 ) GLOBAL_UNCERTAINTY_ASSIGNED_CONTEXT ( ( #44 ) ) GLOBAL_UNIT_ASSIGNED_CONTEXT ( ( #140, #139, #138 ) ) REPRESENTATION_CONTEXT ( 'NONE', 'WORKASPACE' ) );
#292 = MECHANICAL_DESIGN_GEOMETRIC_PRESENTATION_REPRESENTATION (  '', ( #296 ), #291 ) ;
#293 = VERTEX_POINT ( 'NONE', #151 ) ;
#294 = VERTEX_POINT ( 'NONE', #157 ) ;
#295 = PRESENTATION_LAYER_ASSIGNMENT (  '', '', ( #296 ) ) ;
#296 = STYLED_ITEM ( 'NONE', ( #248 ), #37 ) ;
#297 = VERTEX_POINT ( 'NONE', #246 ) ;
#298 =( GEOMETRIC_REPRESENTATION_CONTEXT ( 3 ) GLOBAL_UNCERTAINTY_ASSIGNED_CONTEXT ( ( #48 ) ) GLOBAL_UNIT_ASSIGNED_CONTEXT ( ( #149, #148, #147 ) ) REPRESENTATION_CONTEXT ( 'NONE', 'WORKASPACE' ) );
#299 = AXIS2_PLACEMENT_3D ( 'NONE', #155, #154, #153 ) ;
#300 = AXIS2_PLACEMENT_3D ( 'NONE', #229, #231, #237 ) ;
#301 = AXIS2_PLACEMENT_3D ( 'NONE', #236, #192, #193 ) ;
#302 = AXIS2_PLACEMENT_3D ( 'NONE', #262, #263, #264 ) ;
#303 = SHAPE_DEFINITION_REPRESENTATION ( #258, #37 ) ;
#304 = AXIS2_PLACEMENT_3D ( 'NONE', #184, #179, #189 ) ;
#305 = PRODUCT_DEFINITION_CONTEXT ( 'detailed design', #133, 'design' ) ;
#306 = AXIS2_PLACEMENT_3D ( 'NONE', #180, #181, #182 ) ;
#307 = FACE_OUTER_BOUND ( 'NONE', #158, .T. ) ;
#308 = AXIS2_PLACEMENT_3D ( 'NONE', #257, #259, #260 ) ;
#309 = AXIS2_PLACEMENT_3D ( 'NONE', #104, #284, #1 ) ;
#310 = AXIS2_PLACEMENT_3D ( 'NONE', #103, #8, #280 ) ;
#311 = AXIS2_PLACEMENT_3D ( 'NONE', #275, #272, #106 ) ;
#312 = AXIS2_PLACEMENT_3D ( 'NONE', #12, #178, #3 ) ;
#313 = AXIS2_PLACEMENT_3D ( 'NONE', #276, #271, #274 ) ;
#314 = VERTEX_POINT ( 'NONE', #235 ) ;
#315 = AXIS2_PLACEMENT_3D ( 'NONE', #232, #277, #278 ) ;
#316 = FACE_OUTER_BOUND ( 'NONE', #281, .T. ) ;
#317 = AXIS2_PLACEMENT_3D ( 'NONE', #228, #221, #191 ) ;
#318 = AXIS2_PLACEMENT_3D ( 'NONE', #216, #222, #223 ) ;
#319 = AXIS2_PLACEMENT_3D ( 'NONE', #241, #219, #220 ) ;
#320 = AXIS2_PLACEMENT_3D ( 'NONE', #204, #214, #215 ) ;
#321 = VERTEX_POINT ( 'NONE', #159 ) ;
#322 = FACE_OUTER_BOUND ( 'NONE', #333, .T. ) ;
#323 =( GEOMETRIC_REPRESENTATION_CONTEXT ( 3 ) GLOBAL_UNCERTAINTY_ASSIGNED_CONTEXT ( ( #42 ) ) GLOBAL_UNIT_ASSIGNED_CONTEXT ( ( #203, #211, #212 ) ) REPRESENTATION_CONTEXT ( 'NONE', 'WORKASPACE' ) );
#324 = MECHANICAL_DESIGN_GEOMETRIC_PRESENTATION_REPRESENTATION (  '', ( #326 ), #323 ) ;
#325 = PRESENTATION_LAYER_ASSIGNMENT (  '', '', ( #326 ) ) ;
#326 = STYLED_ITEM ( 'NONE', ( #218 ), #46 ) ;
#327 = EDGE_CURVE ( 'NONE', #126, #113, #93, .T. ) ;
#328 = EDGE_CURVE ( 'NONE', #127, #126, #361, .T. ) ;
#329 = EDGE_CURVE ( 'NONE', #321, #321, #18, .T. ) ;
#330 = EDGE_CURVE ( 'NONE', #314, #314, #22, .T. ) ;
#331 = VECTOR ( 'NONE', #161, 1000.000000000000000 ) ;
#332 = EDGE_CURVE ( 'NONE', #127, #85, #16, .T. ) ;
#333 = EDGE_LOOP ( 'NONE', ( #31 ) ) ;
#334 = FACE_OUTER_BOUND ( 'NONE', #233, .T. ) ;
#335 = EDGE_CURVE ( 'NONE', #282, #85, #11, .T. ) ;
#336 = EDGE_CURVE ( 'NONE', #164, #282, #21, .T. ) ;
#337 = EDGE_CURVE ( 'NONE', #113, #164, #29, .T. ) ;
#338 = EDGE_CURVE ( 'NONE', #294, #294, #32, .T. ) ;
#339 = EDGE_CURVE ( 'NONE', #90, #137, #45, .T. ) ;
#340 = VECTOR ( 'NONE', #163, 1000.000000000000000 ) ;
#341 = EDGE_CURVE ( 'NONE', #137, #156, #35, .T. ) ;
#342 = FACE_BOUND ( 'NONE', #209, .T. ) ;
#343 = EDGE_CURVE ( 'NONE', #156, #297, #53, .T. ) ;
#344 = EDGE_CURVE ( 'NONE', #297, #124, #56, .T. ) ;
#345 = EDGE_CURVE ( 'NONE', #286, #124, #59, .T. ) ;
#346 = EDGE_CURVE ( 'NONE', #286, #90, #43, .T. ) ;
#347 = EDGE_CURVE ( 'NONE', #283, #283, #66, .T. ) ;
#348 = CIRCLE ( 'NONE', #299, 1.500000000000000000 ) ;
#349 = EDGE_CURVE ( 'NONE', #126, #90, #71, .T. ) ;
#350 = LINE ( 'NONE', #162, #331 ) ;
#351 = EDGE_CURVE ( 'NONE', #113, #137, #68, .T. ) ;
#352 = EDGE_CURVE ( 'NONE', #127, #286, #82, .T. ) ;
#353 = EDGE_CURVE ( 'NONE', #85, #124, #6, .T. ) ;
#354 = EDGE_LOOP ( 'NONE', ( #30, #14, #88, #99 ) ) ;
#355 = EDGE_CURVE ( 'NONE', #282, #297, #360, .T. ) ;
#356 = EDGE_CURVE ( 'NONE', #164, #156, #350, .T. ) ;
#357 = EDGE_CURVE ( 'NONE', #293, #293, #348, .T. ) ;
#358 = VECTOR ( 'NONE', #168, 1000.000000000000000 ) ;
#359 = FACE_OUTER_BOUND ( 'NONE', #227, .T. ) ;
#360 = LINE ( 'NONE', #165, #340 ) ;
#361 = LINE ( 'NONE', #253, #15 ) ;
#362 = FACE_BOUND ( 'NONE', #173, .T. ) ;
ENDSEC;
END-ISO-10303-21;
