ISO-10303-21;
HEADER;
FILE_DESCRIPTION (( 'STEP AP214' ),
    '1' );
FILE_NAME ('1065-Z1P-A.STEP',
    '2013-05-15T14:43:26',
    ( '3DAssist' ),
    ( '' ),
    'SwSTEP 2.0',
    'SolidWorks 2013',
    '' );
FILE_SCHEMA (( 'AUTOMOTIVE_DESIGN' ));
ENDSEC;

DATA;
#1 = CONICAL_SURFACE ( 'NONE', #356, 5.700000000000007300, 0.7853981633974526100 ) ;
#2 = DIRECTION ( 'NONE',  ( -1.000000000000000000, 0.0000000000000000000, 0.0000000000000000000 ) ) ;
#3 = UNCERTAINTY_MEASURE_WITH_UNIT (LENGTH_MEASURE( 1.000000000000000100E-005 ), #288, 'distance_accuracy_value', 'NONE');
#4 = DIRECTION ( 'NONE',  ( -0.0000000000000000000, -0.0000000000000000000, -1.000000000000000000 ) ) ;
#5 = ADVANCED_FACE ( 'NONE', ( #114, #61 ), #7, .F. ) ;
#6 = CARTESIAN_POINT ( 'NONE',  ( 0.0000000000000000000, 0.0000000000000000000, -11.95848082882743500 ) ) ;
#7 = PLANE ( 'NONE',  #379 ) ;
#8 = DIRECTION ( 'NONE',  ( -1.000000000000000000, 0.0000000000000000000, 0.0000000000000000000 ) ) ;
#9 = AXIS2_PLACEMENT_3D ( 'NONE', #181, #179, #20 ) ;
#10 = DIRECTION ( 'NONE',  ( -0.0000000000000000000, -0.0000000000000000000, -1.000000000000000000 ) ) ;
#11 = CARTESIAN_POINT ( 'NONE',  ( 0.0000000000000000000, 0.0000000000000000000, 11.95848082882743500 ) ) ;
#12 = ORIENTED_EDGE ( 'NONE', *, *, #301, .F. ) ;
#13 = FILL_AREA_STYLE_COLOUR ( '', #202 ) ;
#14 = UNCERTAINTY_MEASURE_WITH_UNIT (LENGTH_MEASURE( 1.000000000000000100E-005 ), #244, 'distance_accuracy_value', 'NONE');
#15 = ADVANCED_FACE ( 'NONE', ( #113, #254 ), #1, .T. ) ;
#16 = DIRECTION ( 'NONE',  ( -1.000000000000000000, 0.0000000000000000000, 0.0000000000000000000 ) ) ;
#17 = CIRCLE ( 'NONE', #98, 6.000000000000000900 ) ;
#18 = DIRECTION ( 'NONE',  ( -0.0000000000000000000, -0.0000000000000000000, -1.000000000000000000 ) ) ;
#19 = CARTESIAN_POINT ( 'NONE',  ( 0.0000000000000000000, 0.0000000000000000000, 13.95740577675459800 ) ) ;
#20 = DIRECTION ( 'NONE',  ( 1.000000000000000000, 0.0000000000000000000, -0.0000000000000000000 ) ) ;
#21 = SHAPE_DEFINITION_REPRESENTATION ( #108, #271 ) ;
#22 = CARTESIAN_POINT ( 'NONE',  ( 0.0000000000000000000, 0.0000000000000000000, 0.0000000000000000000 ) ) ;
#23 = VERTEX_POINT ( 'NONE', #26 ) ;
#24 = CARTESIAN_POINT ( 'NONE',  ( 5.700000000000003700, 0.0000000000000000000, -17.50000000000000000 ) ) ;
#25 = VERTEX_POINT ( 'NONE', #44 ) ;
#26 = CARTESIAN_POINT ( 'NONE',  ( 3.000000000000000400, 0.0000000000000000000, 17.50000000000000000 ) ) ;
#27 = DIRECTION ( 'NONE',  ( -1.000000000000000000, 0.0000000000000000000, 0.0000000000000000000 ) ) ;
#28 = CARTESIAN_POINT ( 'NONE',  ( 3.000000000000000400, 0.0000000000000000000, -17.50000000000000000 ) ) ;
#29 = VERTEX_POINT ( 'NONE', #43 ) ;
#30 = VERTEX_POINT ( 'NONE', #46 ) ;
#31 = CARTESIAN_POINT ( 'NONE',  ( 0.0000000000000000000, 0.0000000000000000000, 17.20000000000001000 ) ) ;
#32 = VERTEX_POINT ( 'NONE', #42 ) ;
#33 = DIRECTION ( 'NONE',  ( 0.0000000000000000000, 0.0000000000000000000, -1.000000000000000000 ) ) ;
#34 = VERTEX_POINT ( 'NONE', #24 ) ;
#35 = VERTEX_POINT ( 'NONE', #39 ) ;
#36 = VERTEX_POINT ( 'NONE', #40 ) ;
#37 = VERTEX_POINT ( 'NONE', #41 ) ;
#38 = DIRECTION ( 'NONE',  ( 1.000000000000000000, 0.0000000000000000000, 0.0000000000000000000 ) ) ;
#39 = CARTESIAN_POINT ( 'NONE',  ( 6.000000000000000900, 0.0000000000000000000, -17.20000000000000600 ) ) ;
#40 = CARTESIAN_POINT ( 'NONE',  ( -5.999999999999997300, 0.0000000000000000000, -13.95740577675459800 ) ) ;
#41 = CARTESIAN_POINT ( 'NONE',  ( -5.800000000000002500, 0.0000000000000000000, 13.95740577675459800 ) ) ;
#42 = CARTESIAN_POINT ( 'NONE',  ( -5.800000000000002500, 0.0000000000000000000, 11.95848082882743500 ) ) ;
#43 = CARTESIAN_POINT ( 'NONE',  ( -5.800000000000002500, 0.0000000000000000000, -11.95848082882743500 ) ) ;
#44 = CARTESIAN_POINT ( 'NONE',  ( -5.800000000000002500, 0.0000000000000000000, -13.95740577675459800 ) ) ;
#45 = COLOUR_RGB ( '',1.000000000000000000, 1.000000000000000000, 1.000000000000000000 ) ;
#46 = CARTESIAN_POINT ( 'NONE',  ( -6.000000000000000900, 0.0000000000000000000, 11.95848082882743500 ) ) ;
#47 = PRESENTATION_STYLE_ASSIGNMENT (( #67 ) ) ;
#48 = CARTESIAN_POINT ( 'NONE',  ( 5.700000000000007300, 0.0000000000000000000, 17.50000000000000000 ) ) ;
#49 = CARTESIAN_POINT ( 'NONE',  ( -5.999999999999997300, 0.0000000000000000000, -11.95848082882743500 ) ) ;
#50 = CARTESIAN_POINT ( 'NONE',  ( -6.000000000000000900, 0.0000000000000000000, 13.95740577675459800 ) ) ;
#51 = CARTESIAN_POINT ( 'NONE',  ( 6.000000000000000900, 0.0000000000000000000, 17.20000000000001000 ) ) ;
#52 = FILL_AREA_STYLE_COLOUR ( '', #45 ) ;
#53 = FACE_OUTER_BOUND ( 'NONE', #156, .T. ) ;
#54 = PRESENTATION_STYLE_ASSIGNMENT (( #245 ) ) ;
#55 =( LENGTH_UNIT ( ) NAMED_UNIT ( * ) SI_UNIT ( .MILLI., .METRE. ) );
#56 =( NAMED_UNIT ( * ) PLANE_ANGLE_UNIT ( ) SI_UNIT ( $, .RADIAN. ) );
#57 =( NAMED_UNIT ( * ) SI_UNIT ( $, .STERADIAN. ) SOLID_ANGLE_UNIT ( ) );
#58 = FACE_OUTER_BOUND ( 'NONE', #80, .T. ) ;
#59 = APPLICATION_PROTOCOL_DEFINITION ( 'draft international standard', 'automotive_design', 1998, #62 ) ;
#60 = ORIENTED_EDGE ( 'NONE', *, *, #366, .T. ) ;
#61 = FACE_OUTER_BOUND ( 'NONE', #84, .T. ) ;
#62 = APPLICATION_CONTEXT ( 'automotive_design' ) ;
#63 = DIRECTION ( 'NONE',  ( -1.000000000000000000, 0.0000000000000000000, 0.0000000000000000000 ) ) ;
#64 = FILL_AREA_STYLE ('',( #52 ) ) ;
#65 = DIRECTION ( 'NONE',  ( -0.0000000000000000000, -0.0000000000000000000, -1.000000000000000000 ) ) ;
#66 = SURFACE_SIDE_STYLE ('',( #243 ) ) ;
#67 = SURFACE_STYLE_USAGE ( .BOTH. , #66 ) ;
#68 = ORIENTED_EDGE ( 'NONE', *, *, #295, .T. ) ;
#69 =( LENGTH_UNIT ( ) NAMED_UNIT ( * ) SI_UNIT ( .MILLI., .METRE. ) );
#70 = EDGE_LOOP ( 'NONE', ( #151 ) ) ;
#71 =( NAMED_UNIT ( * ) PLANE_ANGLE_UNIT ( ) SI_UNIT ( $, .RADIAN. ) );
#72 = ORIENTED_EDGE ( 'NONE', *, *, #327, .F. ) ;
#73 = VERTEX_POINT ( 'NONE', #50 ) ;
#74 =( NAMED_UNIT ( * ) SI_UNIT ( $, .STERADIAN. ) SOLID_ANGLE_UNIT ( ) );
#75 = DIRECTION ( 'NONE',  ( 0.0000000000000000000, 0.0000000000000000000, 1.000000000000000000 ) ) ;
#76 = DIRECTION ( 'NONE',  ( 1.000000000000000000, 0.0000000000000000000, 0.0000000000000000000 ) ) ;
#77 = PRODUCT_CONTEXT ( 'NONE', #62, 'mechanical' ) ;
#78 = APPLICATION_CONTEXT ( 'automotive_design' ) ;
#79 = ORIENTED_EDGE ( 'NONE', *, *, #341, .F. ) ;
#80 = EDGE_LOOP ( 'NONE', ( #119 ) ) ;
#81 = APPLICATION_PROTOCOL_DEFINITION ( 'draft international standard', 'automotive_design', 1998, #78 ) ;
#82 = EDGE_LOOP ( 'NONE', ( #153 ) ) ;
#83 = EDGE_LOOP ( 'NONE', ( #141 ) ) ;
#84 = EDGE_LOOP ( 'NONE', ( #143 ) ) ;
#85 = CARTESIAN_POINT ( 'NONE',  ( 0.0000000000000000000, 0.0000000000000000000, -13.95740577675459800 ) ) ;
#86 = CYLINDRICAL_SURFACE ( 'NONE', #365, 3.000000000000000400 ) ;
#87 = FACE_OUTER_BOUND ( 'NONE', #149, .T. ) ;
#88 = FACE_OUTER_BOUND ( 'NONE', #126, .T. ) ;
#89 = DIRECTION ( 'NONE',  ( 1.000000000000000000, 0.0000000000000000000, 0.0000000000000000000 ) ) ;
#90 = DIRECTION ( 'NONE',  ( -0.0000000000000000000, -0.0000000000000000000, 1.000000000000000000 ) ) ;
#91 = FACE_OUTER_BOUND ( 'NONE', #122, .T. ) ;
#92 = FACE_OUTER_BOUND ( 'NONE', #116, .T. ) ;
#93 = FACE_OUTER_BOUND ( 'NONE', #157, .T. ) ;
#94 = FACE_OUTER_BOUND ( 'NONE', #144, .T. ) ;
#95 = CYLINDRICAL_SURFACE ( 'NONE', #364, 6.000000000000000900 ) ;
#96 = FACE_BOUND ( 'NONE', #161, .T. ) ;
#97 = FACE_BOUND ( 'NONE', #155, .T. ) ;
#98 = AXIS2_PLACEMENT_3D ( 'NONE', #31, #33, #38 ) ;
#99 = CARTESIAN_POINT ( 'NONE',  ( 0.0000000000000000000, 0.0000000000000000000, -17.20000000000000600 ) ) ;
#100 = FACE_OUTER_BOUND ( 'NONE', #138, .T. ) ;
#101 = FACE_OUTER_BOUND ( 'NONE', #140, .T. ) ;
#102 = CYLINDRICAL_SURFACE ( 'NONE', #372, 5.800000000000002500 ) ;
#103 = FACE_OUTER_BOUND ( 'NONE', #117, .T. ) ;
#104 = SURFACE_STYLE_FILL_AREA ( #308 ) ;
#105 = CYLINDRICAL_SURFACE ( 'NONE', #370, 6.000000000000000900 ) ;
#106 = FACE_OUTER_BOUND ( 'NONE', #152, .T. ) ;
#107 = FACE_OUTER_BOUND ( 'NONE', #137, .T. ) ;
#108 = PRODUCT_DEFINITION_SHAPE ( 'NONE', 'NONE',  #292 ) ;
#109 = CYLINDRICAL_SURFACE ( 'NONE', #373, 6.000000000000000900 ) ;
#110 = PRESENTATION_STYLE_ASSIGNMENT (( #289 ) ) ;
#111 = COLOUR_RGB ( '',0.2509803921568627400, 0.2509803921568627400, 0.2509803921568627400 ) ;
#112 = FACE_OUTER_BOUND ( 'NONE', #120, .T. ) ;
#113 = FACE_OUTER_BOUND ( 'NONE', #160, .T. ) ;
#114 = FACE_BOUND ( 'NONE', #150, .T. ) ;
#115 = EDGE_LOOP ( 'NONE', ( #147 ) ) ;
#116 = EDGE_LOOP ( 'NONE', ( #72 ) ) ;
#117 = EDGE_LOOP ( 'NONE', ( #132 ) ) ;
#118 = ORIENTED_EDGE ( 'NONE', *, *, #366, .F. ) ;
#119 = ORIENTED_EDGE ( 'NONE', *, *, #296, .T. ) ;
#120 = EDGE_LOOP ( 'NONE', ( #60 ) ) ;
#121 = ORIENTED_EDGE ( 'NONE', *, *, #296, .F. ) ;
#122 = EDGE_LOOP ( 'NONE', ( #79 ) ) ;
#123 = DIRECTION ( 'NONE',  ( 1.000000000000000000, 0.0000000000000000000, 0.0000000000000000000 ) ) ;
#124 = DIRECTION ( 'NONE',  ( 0.0000000000000000000, 0.0000000000000000000, 1.000000000000000000 ) ) ;
#125 = ORIENTED_EDGE ( 'NONE', *, *, #294, .F. ) ;
#126 = EDGE_LOOP ( 'NONE', ( #129 ) ) ;
#127 = EDGE_LOOP ( 'NONE', ( #142 ) ) ;
#128 = ORIENTED_EDGE ( 'NONE', *, *, #300, .F. ) ;
#129 = ORIENTED_EDGE ( 'NONE', *, *, #327, .T. ) ;
#130 = ORIENTED_EDGE ( 'NONE', *, *, #300, .T. ) ;
#131 = CARTESIAN_POINT ( 'NONE',  ( 0.0000000000000000000, 0.0000000000000000000, -17.50000000000000000 ) ) ;
#132 = ORIENTED_EDGE ( 'NONE', *, *, #354, .F. ) ;
#133 = EDGE_LOOP ( 'NONE', ( #68 ) ) ;
#134 = EDGE_LOOP ( 'NONE', ( #248 ) ) ;
#135 = ORIENTED_EDGE ( 'NONE', *, *, #301, .T. ) ;
#136 = ORIENTED_EDGE ( 'NONE', *, *, #297, .T. ) ;
#137 = EDGE_LOOP ( 'NONE', ( #136 ) ) ;
#138 = EDGE_LOOP ( 'NONE', ( #162 ) ) ;
#139 = ORIENTED_EDGE ( 'NONE', *, *, #299, .T. ) ;
#140 = EDGE_LOOP ( 'NONE', ( #146 ) ) ;
#141 = ORIENTED_EDGE ( 'NONE', *, *, #298, .F. ) ;
#142 = ORIENTED_EDGE ( 'NONE', *, *, #339, .T. ) ;
#143 = ORIENTED_EDGE ( 'NONE', *, *, #341, .T. ) ;
#144 = EDGE_LOOP ( 'NONE', ( #158 ) ) ;
#145 = ORIENTED_EDGE ( 'NONE', *, *, #297, .F. ) ;
#146 = ORIENTED_EDGE ( 'NONE', *, *, #293, .T. ) ;
#147 = ORIENTED_EDGE ( 'NONE', *, *, #293, .F. ) ;
#148 = EDGE_LOOP ( 'NONE', ( #139 ) ) ;
#149 = EDGE_LOOP ( 'NONE', ( #159 ) ) ;
#150 = EDGE_LOOP ( 'NONE', ( #128 ) ) ;
#151 = ORIENTED_EDGE ( 'NONE', *, *, #339, .F. ) ;
#152 = EDGE_LOOP ( 'NONE', ( #12 ) ) ;
#153 = ORIENTED_EDGE ( 'NONE', *, *, #354, .T. ) ;
#154 = ADVANCED_FACE ( 'NONE', ( #58, #107 ), #109, .T. ) ;
#155 = EDGE_LOOP ( 'NONE', ( #135 ) ) ;
#156 = EDGE_LOOP ( 'NONE', ( #130 ) ) ;
#157 = EDGE_LOOP ( 'NONE', ( #145 ) ) ;
#158 = ORIENTED_EDGE ( 'NONE', *, *, #298, .T. ) ;
#159 = ORIENTED_EDGE ( 'NONE', *, *, #299, .F. ) ;
#160 = EDGE_LOOP ( 'NONE', ( #118 ) ) ;
#161 = EDGE_LOOP ( 'NONE', ( #125 ) ) ;
#162 = ORIENTED_EDGE ( 'NONE', *, *, #295, .F. ) ;
#163 = DIRECTION ( 'NONE',  ( 1.000000000000000000, 0.0000000000000000000, 0.0000000000000000000 ) ) ;
#164 = CLOSED_SHELL ( 'NONE', ( #261, #200, #303, #359, #154, #206, #321, #272, #284, #5, #170, #283, #15, #275 ) ) ;
#165 = EDGE_LOOP ( 'NONE', ( #121 ) ) ;
#166 = FACE_OUTER_BOUND ( 'NONE', #165, .T. ) ;
#167 = COLOUR_RGB ( '',1.000000000000000000, 1.000000000000000000, 1.000000000000000000 ) ;
#168 = VERTEX_POINT ( 'NONE', #48 ) ;
#169 = FACE_BOUND ( 'NONE', #148, .T. ) ;
#170 = ADVANCED_FACE ( 'NONE', ( #106, #53 ), #102, .T. ) ;
#171 = DIRECTION ( 'NONE',  ( -0.0000000000000000000, -0.0000000000000000000, -1.000000000000000000 ) ) ;
#172 = CYLINDRICAL_SURFACE ( 'NONE', #362, 5.800000000000002500 ) ;
#173 = CONICAL_SURFACE ( 'NONE', #367, 6.000000000000000900, 0.7853981633974528300 ) ;
#174 = FACE_OUTER_BOUND ( 'NONE', #127, .T. ) ;
#175 = CIRCLE ( 'NONE', #350, 3.000000000000000400 ) ;
#176 = CARTESIAN_POINT ( 'NONE',  ( 0.0000000000000000000, 0.0000000000000000000, -17.50000000000000000 ) ) ;
#177 = SURFACE_STYLE_FILL_AREA ( #257 ) ;
#178 = PRESENTATION_STYLE_ASSIGNMENT (( #252 ) ) ;
#179 = DIRECTION ( 'NONE',  ( 0.0000000000000000000, 0.0000000000000000000, 1.000000000000000000 ) ) ;
#180 = DIRECTION ( 'NONE',  ( 1.000000000000000000, 0.0000000000000000000, 0.0000000000000000000 ) ) ;
#181 = CARTESIAN_POINT ( 'NONE',  ( 0.0000000000000000000, 0.0000000000000000000, -17.50000000000000000 ) ) ;
#182 =( NAMED_UNIT ( * ) PLANE_ANGLE_UNIT ( ) SI_UNIT ( $, .RADIAN. ) );
#183 = SURFACE_STYLE_FILL_AREA ( #249 ) ;
#184 =( NAMED_UNIT ( * ) SI_UNIT ( $, .STERADIAN. ) SOLID_ANGLE_UNIT ( ) );
#185 = SURFACE_STYLE_USAGE ( .BOTH. , #191 ) ;
#186 =( GEOMETRIC_REPRESENTATION_CONTEXT ( 3 ) GLOBAL_UNCERTAINTY_ASSIGNED_CONTEXT ( ( #287 ) ) GLOBAL_UNIT_ASSIGNED_CONTEXT ( ( #187, #182, #184 ) ) REPRESENTATION_CONTEXT ( 'NONE', 'WORKASPACE' ) );
#187 =( LENGTH_UNIT ( ) NAMED_UNIT ( * ) SI_UNIT ( .MILLI., .METRE. ) );
#188 = DIRECTION ( 'NONE',  ( -1.000000000000000000, 0.0000000000000000000, 0.0000000000000000000 ) ) ;
#189 = FILL_AREA_STYLE ('',( #226 ) ) ;
#190 = CIRCLE ( 'NONE', #336, 5.800000000000002500 ) ;
#191 = SURFACE_SIDE_STYLE ('',( #230 ) ) ;
#192 = CIRCLE ( 'NONE', #338, 5.800000000000002500 ) ;
#193 = DIRECTION ( 'NONE',  ( -0.0000000000000000000, -0.0000000000000000000, -1.000000000000000000 ) ) ;
#194 = CIRCLE ( 'NONE', #343, 5.999999999999997300 ) ;
#195 = CIRCLE ( 'NONE', #345, 6.000000000000000900 ) ;
#196 = CIRCLE ( 'NONE', #347, 3.000000000000000400 ) ;
#197 = CIRCLE ( 'NONE', #348, 5.700000000000003700 ) ;
#198 = PLANE ( 'NONE',  #9 ) ;
#199 = CARTESIAN_POINT ( 'NONE',  ( 0.0000000000000000000, 0.0000000000000000000, 13.95740577675459800 ) ) ;
#200 = ADVANCED_FACE ( 'NONE', ( #112, #103 ), #105, .T. ) ;
#201 = FACE_BOUND ( 'NONE', #115, .T. ) ;
#202 = COLOUR_RGB ( '',0.2509803921568627400, 0.2509803921568627400, 0.2509803921568627400 ) ;
#203 = CIRCLE ( 'NONE', #333, 5.800000000000002500 ) ;
#204 = CIRCLE ( 'NONE', #335, 5.800000000000002500 ) ;
#205 = DIRECTION ( 'NONE',  ( 0.0000000000000000000, 0.0000000000000000000, 1.000000000000000000 ) ) ;
#206 = ADVANCED_FACE ( 'NONE', ( #101, #100 ), #86, .F. ) ;
#207 = CARTESIAN_POINT ( 'NONE',  ( 0.0000000000000000000, 0.0000000000000000000, 17.50000000000000000 ) ) ;
#208 = DIRECTION ( 'NONE',  ( 0.0000000000000000000, 0.0000000000000000000, 1.000000000000000000 ) ) ;
#209 = DIRECTION ( 'NONE',  ( 1.000000000000000000, 0.0000000000000000000, -0.0000000000000000000 ) ) ;
#210 = CARTESIAN_POINT ( 'NONE',  ( 0.0000000000000000000, 0.0000000000000000000, 17.50000000000000000 ) ) ;
#211 = CARTESIAN_POINT ( 'NONE',  ( 0.0000000000000000000, 6.000000000000000900, 13.95740577675459800 ) ) ;
#212 = PRESENTATION_STYLE_ASSIGNMENT (( #185 ) ) ;
#213 = CIRCLE ( 'NONE', #324, 6.000000000000000900 ) ;
#214 = FACE_BOUND ( 'NONE', #83, .T. ) ;
#215 = PLANE ( 'NONE',  #322 ) ;
#216 = DIRECTION ( 'NONE',  ( 0.0000000000000000000, 0.0000000000000000000, 1.000000000000000000 ) ) ;
#217 = DIRECTION ( 'NONE',  ( 1.000000000000000000, 0.0000000000000000000, -0.0000000000000000000 ) ) ;
#218 = FACE_OUTER_BOUND ( 'NONE', #134, .T. ) ;
#219 = CARTESIAN_POINT ( 'NONE',  ( 0.0000000000000000000, 0.0000000000000000000, 11.95848082882743500 ) ) ;
#220 = CIRCLE ( 'NONE', #320, 5.700000000000007300 ) ;
#221 = CIRCLE ( 'NONE', #314, 6.000000000000000900 ) ;
#222 = DIRECTION ( 'NONE',  ( -0.0000000000000000000, -0.0000000000000000000, -1.000000000000000000 ) ) ;
#223 = CIRCLE ( 'NONE', #316, 5.999999999999997300 ) ;
#224 = DIRECTION ( 'NONE',  ( -1.000000000000000000, 0.0000000000000000000, 0.0000000000000000000 ) ) ;
#225 = DIRECTION ( 'NONE',  ( 0.0000000000000000000, 0.0000000000000000000, 1.000000000000000000 ) ) ;
#226 = FILL_AREA_STYLE_COLOUR ( '', #232 ) ;
#227 = CARTESIAN_POINT ( 'NONE',  ( 0.0000000000000000000, 0.0000000000000000000, 17.50000000000000000 ) ) ;
#228 = DIRECTION ( 'NONE',  ( 1.000000000000000000, 0.0000000000000000000, 0.0000000000000000000 ) ) ;
#229 = FACE_BOUND ( 'NONE', #133, .T. ) ;
#230 = SURFACE_STYLE_FILL_AREA ( #189 ) ;
#231 = FACE_OUTER_BOUND ( 'NONE', #82, .T. ) ;
#232 = COLOUR_RGB ( '',0.2509803921568627400, 0.2509803921568627400, 0.2509803921568627400 ) ;
#233 = CARTESIAN_POINT ( 'NONE',  ( 0.0000000000000000000, 0.0000000000000000000, -11.95848082882743500 ) ) ;
#234 = PRODUCT_DEFINITION_CONTEXT ( 'detailed design', #78, 'design' ) ;
#235 = DIRECTION ( 'NONE',  ( -0.0000000000000000000, -0.0000000000000000000, -1.000000000000000000 ) ) ;
#236 =( NAMED_UNIT ( * ) SI_UNIT ( $, .STERADIAN. ) SOLID_ANGLE_UNIT ( ) );
#237 = DIRECTION ( 'NONE',  ( -1.000000000000000000, 0.0000000000000000000, 0.0000000000000000000 ) ) ;
#238 =( NAMED_UNIT ( * ) PLANE_ANGLE_UNIT ( ) SI_UNIT ( $, .RADIAN. ) );
#239 = MECHANICAL_DESIGN_GEOMETRIC_PRESENTATION_REPRESENTATION (  '', ( #311 ), #186 ) ;
#240 = VERTEX_POINT ( 'NONE', #51 ) ;
#241 =( NAMED_UNIT ( * ) SI_UNIT ( $, .STERADIAN. ) SOLID_ANGLE_UNIT ( ) );
#242 = PLANE ( 'NONE',  #325 ) ;
#243 = SURFACE_STYLE_FILL_AREA ( #64 ) ;
#244 =( LENGTH_UNIT ( ) NAMED_UNIT ( * ) SI_UNIT ( .MILLI., .METRE. ) );
#245 = SURFACE_STYLE_USAGE ( .BOTH. , #247 ) ;
#246 =( NAMED_UNIT ( * ) PLANE_ANGLE_UNIT ( ) SI_UNIT ( $, .RADIAN. ) );
#247 = SURFACE_SIDE_STYLE ('',( #183 ) ) ;
#248 = ORIENTED_EDGE ( 'NONE', *, *, #294, .T. ) ;
#249 = FILL_AREA_STYLE ('',( #13 ) ) ;
#250 =( LENGTH_UNIT ( ) NAMED_UNIT ( * ) SI_UNIT ( .MILLI., .METRE. ) );
#251 = DIRECTION ( 'NONE',  ( -1.000000000000000000, 0.0000000000000000000, 0.0000000000000000000 ) ) ;
#252 = SURFACE_STYLE_USAGE ( .BOTH. , #253 ) ;
#253 = SURFACE_SIDE_STYLE ('',( #177 ) ) ;
#254 = FACE_BOUND ( 'NONE', #70, .T. ) ;
#255 = VERTEX_POINT ( 'NONE', #28 ) ;
#256 = DIRECTION ( 'NONE',  ( -0.0000000000000000000, -0.0000000000000000000, -1.000000000000000000 ) ) ;
#257 = FILL_AREA_STYLE ('',( #260 ) ) ;
#258 = DIRECTION ( 'NONE',  ( -1.000000000000000000, 0.0000000000000000000, 0.0000000000000000000 ) ) ;
#259 = PLANE ( 'NONE',  #357 ) ;
#260 = FILL_AREA_STYLE_COLOUR ( '', #167 ) ;
#261 = ADVANCED_FACE ( 'NONE', ( #91, #88 ), #95, .T. ) ;
#262 = CARTESIAN_POINT ( 'NONE',  ( 0.0000000000000000000, 6.000000000000000900, 11.95848082882743500 ) ) ;
#263 = DIRECTION ( 'NONE',  ( -1.000000000000000000, 0.0000000000000000000, 0.0000000000000000000 ) ) ;
#264 = DIRECTION ( 'NONE',  ( -0.0000000000000000000, 0.0000000000000000000, -1.000000000000000000 ) ) ;
#265 = PLANE ( 'NONE',  #361 ) ;
#266 = DIRECTION ( 'NONE',  ( -0.0000000000000000000, 0.0000000000000000000, -1.000000000000000000 ) ) ;
#267 = DIRECTION ( 'NONE',  ( -0.0000000000000000000, -0.0000000000000000000, 1.000000000000000000 ) ) ;
#268 = CARTESIAN_POINT ( 'NONE',  ( 0.0000000000000000000, 0.0000000000000000000, -13.95740577675459800 ) ) ;
#269 = CARTESIAN_POINT ( 'NONE',  ( 0.0000000000000000000, 0.0000000000000000000, -17.20000000000000600 ) ) ;
#270 = CARTESIAN_POINT ( 'NONE',  ( 0.0000000000000000000, 5.999999999999997300, -13.95740577675459800 ) ) ;
#271 = ADVANCED_BREP_SHAPE_REPRESENTATION ( '1065-Z1P-A', ( #291, #290 ), #332 ) ;
#272 = ADVANCED_FACE ( 'NONE', ( #87, #94 ), #172, .T. ) ;
#273 = DIRECTION ( 'NONE',  ( -0.0000000000000000000, -0.0000000000000000000, -1.000000000000000000 ) ) ;
#274 = UNCERTAINTY_MEASURE_WITH_UNIT (LENGTH_MEASURE( 1.000000000000000100E-005 ), #250, 'distance_accuracy_value', 'NONE');
#275 = ADVANCED_FACE ( 'NONE', ( #96, #166 ), #173, .T. ) ;
#276 = PRODUCT ( '1065-Z1P-A', '1065-Z1P-A', '', ( #77 ) ) ;
#277 = CARTESIAN_POINT ( 'NONE',  ( 0.0000000000000000000, 0.0000000000000000000, 0.0000000000000000000 ) ) ;
#278 = DIRECTION ( 'NONE',  ( -0.0000000000000000000, -0.0000000000000000000, -1.000000000000000000 ) ) ;
#279 = CARTESIAN_POINT ( 'NONE',  ( 0.0000000000000000000, 0.0000000000000000000, 17.50000000000000000 ) ) ;
#280 = DIRECTION ( 'NONE',  ( -1.000000000000000000, 0.0000000000000000000, 0.0000000000000000000 ) ) ;
#281 = DIRECTION ( 'NONE',  ( 1.000000000000000000, 0.0000000000000000000, 0.0000000000000000000 ) ) ;
#282 = DIRECTION ( 'NONE',  ( -1.000000000000000000, 0.0000000000000000000, 0.0000000000000000000 ) ) ;
#283 = ADVANCED_FACE ( 'NONE', ( #93, #97 ), #265, .F. ) ;
#284 = ADVANCED_FACE ( 'NONE', ( #92, #169 ), #259, .F. ) ;
#285 =( NAMED_UNIT ( * ) SI_UNIT ( $, .STERADIAN. ) SOLID_ANGLE_UNIT ( ) );
#286 =( NAMED_UNIT ( * ) PLANE_ANGLE_UNIT ( ) SI_UNIT ( $, .RADIAN. ) );
#287 = UNCERTAINTY_MEASURE_WITH_UNIT (LENGTH_MEASURE( 1.000000000000000100E-005 ), #187, 'distance_accuracy_value', 'NONE');
#288 =( LENGTH_UNIT ( ) NAMED_UNIT ( * ) SI_UNIT ( .MILLI., .METRE. ) );
#289 = SURFACE_STYLE_USAGE ( .BOTH. , #302 ) ;
#290 = AXIS2_PLACEMENT_3D ( 'NONE', #22, #75, #76 ) ;
#291 = MANIFOLD_SOLID_BREP ( 'Chamfer1', #164 ) ;
#292 = PRODUCT_DEFINITION ( 'UNKNOWN', '', #310, #234 ) ;
#293 = EDGE_CURVE ( 'NONE', #23, #23, #175, .T. ) ;
#294 = EDGE_CURVE ( 'NONE', #34, #34, #197, .T. ) ;
#295 = EDGE_CURVE ( 'NONE', #255, #255, #196, .T. ) ;
#296 = EDGE_CURVE ( 'NONE', #35, #35, #195, .T. ) ;
#297 = EDGE_CURVE ( 'NONE', #36, #36, #194, .T. ) ;
#298 = EDGE_CURVE ( 'NONE', #37, #37, #192, .T. ) ;
#299 = EDGE_CURVE ( 'NONE', #32, #32, #190, .T. ) ;
#300 = EDGE_CURVE ( 'NONE', #29, #29, #204, .T. ) ;
#301 = EDGE_CURVE ( 'NONE', #25, #25, #203, .T. ) ;
#302 = SURFACE_SIDE_STYLE ('',( #104 ) ) ;
#303 = ADVANCED_FACE ( 'NONE', ( #174, #201 ), #242, .T. ) ;
#304 = DIRECTION ( 'NONE',  ( -1.000000000000000000, 0.0000000000000000000, 0.0000000000000000000 ) ) ;
#305 = DIRECTION ( 'NONE',  ( -0.0000000000000000000, -0.0000000000000000000, -1.000000000000000000 ) ) ;
#306 = CARTESIAN_POINT ( 'NONE',  ( 0.0000000000000000000, 0.0000000000000000000, 17.50000000000000000 ) ) ;
#307 = PRESENTATION_LAYER_ASSIGNMENT (  '', '', ( #311 ) ) ;
#308 = FILL_AREA_STYLE ('',( #334 ) ) ;
#309 = DIRECTION ( 'NONE',  ( -0.0000000000000000000, -0.0000000000000000000, -1.000000000000000000 ) ) ;
#310 = PRODUCT_DEFINITION_FORMATION_WITH_SPECIFIED_SOURCE ( 'ANY', '', #276, .NOT_KNOWN. ) ;
#311 = STYLED_ITEM ( 'NONE', ( #212 ), #359 ) ;
#312 = PRODUCT_RELATED_PRODUCT_CATEGORY ( 'part', '', ( #276 ) ) ;
#313 = CARTESIAN_POINT ( 'NONE',  ( 0.0000000000000000000, 0.0000000000000000000, 17.50000000000000000 ) ) ;
#314 = AXIS2_PLACEMENT_3D ( 'NONE', #199, #193, #188 ) ;
#315 =( GEOMETRIC_REPRESENTATION_CONTEXT ( 3 ) GLOBAL_UNCERTAINTY_ASSIGNED_CONTEXT ( ( #360 ) ) GLOBAL_UNIT_ASSIGNED_CONTEXT ( ( #69, #71, #74 ) ) REPRESENTATION_CONTEXT ( 'NONE', 'WORKASPACE' ) );
#316 = AXIS2_PLACEMENT_3D ( 'NONE', #233, #235, #237 ) ;
#317 = MECHANICAL_DESIGN_GEOMETRIC_PRESENTATION_REPRESENTATION (  '', ( #319 ), #315 ) ;
#318 = PRESENTATION_LAYER_ASSIGNMENT (  '', '', ( #319 ) ) ;
#319 = STYLED_ITEM ( 'NONE', ( #47 ), #271 ) ;
#320 = AXIS2_PLACEMENT_3D ( 'NONE', #227, #225, #228 ) ;
#321 = ADVANCED_FACE ( 'NONE', ( #214, #231 ), #215, .F. ) ;
#322 = AXIS2_PLACEMENT_3D ( 'NONE', #211, #216, #217 ) ;
#323 = CARTESIAN_POINT ( 'NONE',  ( 0.0000000000000000000, 0.0000000000000000000, 0.0000000000000000000 ) ) ;
#324 = AXIS2_PLACEMENT_3D ( 'NONE', #219, #222, #224 ) ;
#325 = AXIS2_PLACEMENT_3D ( 'NONE', #207, #208, #209 ) ;
#326 = DIRECTION ( 'NONE',  ( -1.000000000000000000, 0.0000000000000000000, 0.0000000000000000000 ) ) ;
#327 = EDGE_CURVE ( 'NONE', #30, #30, #213, .T. ) ;
#328 =( GEOMETRIC_REPRESENTATION_CONTEXT ( 3 ) GLOBAL_UNCERTAINTY_ASSIGNED_CONTEXT ( ( #14 ) ) GLOBAL_UNIT_ASSIGNED_CONTEXT ( ( #244, #246, #241 ) ) REPRESENTATION_CONTEXT ( 'NONE', 'WORKASPACE' ) );
#329 = MECHANICAL_DESIGN_GEOMETRIC_PRESENTATION_REPRESENTATION (  '', ( #331 ), #328 ) ;
#330 = PRESENTATION_LAYER_ASSIGNMENT (  '', '', ( #331 ) ) ;
#331 = STYLED_ITEM ( 'NONE', ( #54 ), #303 ) ;
#332 =( GEOMETRIC_REPRESENTATION_CONTEXT ( 3 ) GLOBAL_UNCERTAINTY_ASSIGNED_CONTEXT ( ( #344 ) ) GLOBAL_UNIT_ASSIGNED_CONTEXT ( ( #55, #56, #57 ) ) REPRESENTATION_CONTEXT ( 'NONE', 'WORKASPACE' ) );
#333 = AXIS2_PLACEMENT_3D ( 'NONE', #268, #256, #251 ) ;
#334 = FILL_AREA_STYLE_COLOUR ( '', #111 ) ;
#335 = AXIS2_PLACEMENT_3D ( 'NONE', #6, #4, #2 ) ;
#336 = AXIS2_PLACEMENT_3D ( 'NONE', #11, #10, #8 ) ;
#337 = DIRECTION ( 'NONE',  ( -0.0000000000000000000, -0.0000000000000000000, -1.000000000000000000 ) ) ;
#338 = AXIS2_PLACEMENT_3D ( 'NONE', #19, #18, #16 ) ;
#339 = EDGE_CURVE ( 'NONE', #168, #168, #220, .T. ) ;
#340 = CARTESIAN_POINT ( 'NONE',  ( 0.0000000000000000000, 0.0000000000000000000, 17.50000000000000000 ) ) ;
#341 = EDGE_CURVE ( 'NONE', #353, #353, #223, .T. ) ;
#342 = DIRECTION ( 'NONE',  ( -1.000000000000000000, 0.0000000000000000000, 0.0000000000000000000 ) ) ;
#343 = AXIS2_PLACEMENT_3D ( 'NONE', #85, #65, #63 ) ;
#344 = UNCERTAINTY_MEASURE_WITH_UNIT (LENGTH_MEASURE( 1.000000000000000100E-005 ), #55, 'distance_accuracy_value', 'NONE');
#345 = AXIS2_PLACEMENT_3D ( 'NONE', #99, #90, #89 ) ;
#346 = DIRECTION ( 'NONE',  ( -1.000000000000000000, 0.0000000000000000000, 0.0000000000000000000 ) ) ;
#347 = AXIS2_PLACEMENT_3D ( 'NONE', #131, #124, #123 ) ;
#348 = AXIS2_PLACEMENT_3D ( 'NONE', #176, #171, #163 ) ;
#349 = DIRECTION ( 'NONE',  ( -0.0000000000000000000, -0.0000000000000000000, -1.000000000000000000 ) ) ;
#350 = AXIS2_PLACEMENT_3D ( 'NONE', #210, #205, #180 ) ;
#351 =( GEOMETRIC_REPRESENTATION_CONTEXT ( 3 ) GLOBAL_UNCERTAINTY_ASSIGNED_CONTEXT ( ( #274 ) ) GLOBAL_UNIT_ASSIGNED_CONTEXT ( ( #250, #238, #236 ) ) REPRESENTATION_CONTEXT ( 'NONE', 'WORKASPACE' ) );
#352 = MECHANICAL_DESIGN_GEOMETRIC_PRESENTATION_REPRESENTATION (  '', ( #358 ), #351 ) ;
#353 = VERTEX_POINT ( 'NONE', #49 ) ;
#354 = EDGE_CURVE ( 'NONE', #73, #73, #221, .T. ) ;
#355 = PRESENTATION_LAYER_ASSIGNMENT (  '', '', ( #358 ) ) ;
#356 = AXIS2_PLACEMENT_3D ( 'NONE', #371, #363, #27 ) ;
#357 = AXIS2_PLACEMENT_3D ( 'NONE', #262, #264, #258 ) ;
#358 = STYLED_ITEM ( 'NONE', ( #178 ), #291 ) ;
#359 = ADVANCED_FACE ( 'NONE', ( #218, #229 ), #198, .F. ) ;
#360 = UNCERTAINTY_MEASURE_WITH_UNIT (LENGTH_MEASURE( 1.000000000000000100E-005 ), #69, 'distance_accuracy_value', 'NONE');
#361 = AXIS2_PLACEMENT_3D ( 'NONE', #270, #266, #263 ) ;
#362 = AXIS2_PLACEMENT_3D ( 'NONE', #277, #273, #304 ) ;
#363 = DIRECTION ( 'NONE',  ( 0.0000000000000000000, 0.0000000000000000000, -1.000000000000000000 ) ) ;
#364 = AXIS2_PLACEMENT_3D ( 'NONE', #279, #278, #280 ) ;
#365 = AXIS2_PLACEMENT_3D ( 'NONE', #306, #305, #282 ) ;
#366 = EDGE_CURVE ( 'NONE', #240, #240, #17, .T. ) ;
#367 = AXIS2_PLACEMENT_3D ( 'NONE', #269, #267, #281 ) ;
#368 =( GEOMETRIC_REPRESENTATION_CONTEXT ( 3 ) GLOBAL_UNCERTAINTY_ASSIGNED_CONTEXT ( ( #3 ) ) GLOBAL_UNIT_ASSIGNED_CONTEXT ( ( #288, #286, #285 ) ) REPRESENTATION_CONTEXT ( 'NONE', 'WORKASPACE' ) );
#369 = MECHANICAL_DESIGN_GEOMETRIC_PRESENTATION_REPRESENTATION (  '', ( #375 ), #368 ) ;
#370 = AXIS2_PLACEMENT_3D ( 'NONE', #313, #309, #346 ) ;
#371 = CARTESIAN_POINT ( 'NONE',  ( 0.0000000000000000000, 0.0000000000000000000, 17.50000000000000000 ) ) ;
#372 = AXIS2_PLACEMENT_3D ( 'NONE', #323, #337, #326 ) ;
#373 = AXIS2_PLACEMENT_3D ( 'NONE', #340, #349, #342 ) ;
#374 = CARTESIAN_POINT ( 'NONE',  ( 0.0000000000000000000, 5.999999999999997300, -11.95848082882743500 ) ) ;
#375 = STYLED_ITEM ( 'NONE', ( #110 ), #206 ) ;
#376 = DIRECTION ( 'NONE',  ( 1.000000000000000000, 0.0000000000000000000, -0.0000000000000000000 ) ) ;
#377 = PRESENTATION_LAYER_ASSIGNMENT (  '', '', ( #375 ) ) ;
#378 = DIRECTION ( 'NONE',  ( 0.0000000000000000000, 0.0000000000000000000, 1.000000000000000000 ) ) ;
#379 = AXIS2_PLACEMENT_3D ( 'NONE', #374, #378, #376 ) ;
ENDSEC;
END-ISO-10303-21;
