ISO-10303-21;
HEADER;
FILE_DESCRIPTION (( 'STEP AP214' ),
    '1' );
FILE_NAME ('1049-A2P-A.STEP',
    '2013-05-15T14:40:48',
    ( '3DAssist' ),
    ( '' ),
    'SwSTEP 2.0',
    'SolidWorks 2013',
    '' );
FILE_SCHEMA (( 'AUTOMOTIVE_DESIGN' ));
ENDSEC;

DATA;
#1 = EDGE_LOOP ( 'NONE', ( #277 ) ) ;
#2 = FACE_OUTER_BOUND ( 'NONE', #219, .T. ) ;
#3 = APPLICATION_PROTOCOL_DEFINITION ( 'draft international standard', 'automotive_design', 1998, #5 ) ;
#4 = CYLINDRICAL_SURFACE ( 'NONE', #177, 1.249999999999996700 ) ;
#5 = APPLICATION_CONTEXT ( 'automotive_design' ) ;
#6 = PRODUCT_CONTEXT ( 'NONE', #20, 'mechanical' ) ;
#7 = DIRECTION ( 'NONE',  ( 1.000000000000000000, 0.0000000000000000000, 0.0000000000000000000 ) ) ;
#8 = DIRECTION ( 'NONE',  ( 0.0000000000000000000, 0.0000000000000000000, 1.000000000000000000 ) ) ;
#9 = SURFACE_STYLE_FILL_AREA ( #111 ) ;
#10 = PRESENTATION_STYLE_ASSIGNMENT (( #59 ) ) ;
#11 = FACE_OUTER_BOUND ( 'NONE', #204, .T. ) ;
#12 = COLOUR_RGB ( '',0.7921568627450980000, 0.8196078431372548800, 0.9333333333333333500 ) ;
#13 =( NAMED_UNIT ( * ) SI_UNIT ( $, .STERADIAN. ) SOLID_ANGLE_UNIT ( ) );
#14 =( NAMED_UNIT ( * ) PLANE_ANGLE_UNIT ( ) SI_UNIT ( $, .RADIAN. ) );
#15 =( LENGTH_UNIT ( ) NAMED_UNIT ( * ) SI_UNIT ( .MILLI., .METRE. ) );
#16 = ADVANCED_FACE ( 'NONE', ( #114 ), #325, .F. ) ;
#17 = SURFACE_STYLE_USAGE ( .BOTH. , #18 ) ;
#18 = SURFACE_SIDE_STYLE ('',( #183 ) ) ;
#19 = FILL_AREA_STYLE ('',( #29 ) ) ;
#20 = APPLICATION_CONTEXT ( 'automotive_design' ) ;
#21 = APPLICATION_PROTOCOL_DEFINITION ( 'draft international standard', 'automotive_design', 1998, #20 ) ;
#22 = FACE_OUTER_BOUND ( 'NONE', #232, .T. ) ;
#23 =( NAMED_UNIT ( * ) SI_UNIT ( $, .STERADIAN. ) SOLID_ANGLE_UNIT ( ) );
#24 =( NAMED_UNIT ( * ) PLANE_ANGLE_UNIT ( ) SI_UNIT ( $, .RADIAN. ) );
#25 =( LENGTH_UNIT ( ) NAMED_UNIT ( * ) SI_UNIT ( .MILLI., .METRE. ) );
#26 = COLOUR_RGB ( '',0.7921568627450980000, 0.8196078431372548800, 0.9333333333333333500 ) ;
#27 = SURFACE_STYLE_FILL_AREA ( #126 ) ;
#28 = PRESENTATION_STYLE_ASSIGNMENT (( #106 ) ) ;
#29 = FILL_AREA_STYLE_COLOUR ( '', #364 ) ;
#30 = FACE_BOUND ( 'NONE', #1, .T. ) ;
#31 = CARTESIAN_POINT ( 'NONE',  ( 6.749999999999995600, 3.000000000000000000, 1.500000000000001300 ) ) ;
#32 = FACE_OUTER_BOUND ( 'NONE', #185, .T. ) ;
#33 = FACE_OUTER_BOUND ( 'NONE', #189, .T. ) ;
#34 = CARTESIAN_POINT ( 'NONE',  ( -3.000000000000001800, -6.000000000000000000, 2.499999999999997800 ) ) ;
#35 = FACE_BOUND ( 'NONE', #180, .T. ) ;
#36 = CARTESIAN_POINT ( 'NONE',  ( -3.000000000000001800, 6.000000000000000000, 2.499999999999998700 ) ) ;
#37 = CARTESIAN_POINT ( 'NONE',  ( 3.510000000000000200, 4.000000000000000000, -12.50000000000000000 ) ) ;
#38 = CARTESIAN_POINT ( 'NONE',  ( 0.0000000000000000000, 0.0000000000000000000, 0.0000000000000000000 ) ) ;
#39 = CARTESIAN_POINT ( 'NONE',  ( 6.749999999999997300, 3.000000000000000000, 12.50000000000000000 ) ) ;
#40 = FACE_BOUND ( 'NONE', #158, .T. ) ;
#41 = CARTESIAN_POINT ( 'NONE',  ( 7.009999999999998900, -2.200000000000000600, 12.50000000000000000 ) ) ;
#42 = FACE_BOUND ( 'NONE', #178, .T. ) ;
#43 = FACE_BOUND ( 'NONE', #191, .T. ) ;
#44 = UNCERTAINTY_MEASURE_WITH_UNIT (LENGTH_MEASURE( 1.000000000000000100E-005 ), #15, 'distance_accuracy_value', 'NONE');
#45 = CIRCLE ( 'NONE', #225, 1.249999999999996000 ) ;
#46 = CIRCLE ( 'NONE', #226, 2.499999999999997800 ) ;
#47 = CARTESIAN_POINT ( 'NONE',  ( 3.510000000000000200, 4.000000000000000000, 12.50000000000000000 ) ) ;
#48 = FACE_OUTER_BOUND ( 'NONE', #221, .T. ) ;
#49 = FACE_OUTER_BOUND ( 'NONE', #203, .T. ) ;
#50 = DIRECTION ( 'NONE',  ( 0.0000000000000000000, 0.0000000000000000000, 1.000000000000000000 ) ) ;
#51 =( NAMED_UNIT ( * ) SI_UNIT ( $, .STERADIAN. ) SOLID_ANGLE_UNIT ( ) );
#52 = CIRCLE ( 'NONE', #230, 2.499999999999998700 ) ;
#53 = VECTOR ( 'NONE', #190, 1000.000000000000000 ) ;
#54 =( NAMED_UNIT ( * ) PLANE_ANGLE_UNIT ( ) SI_UNIT ( $, .RADIAN. ) );
#55 = VECTOR ( 'NONE', #182, 1000.000000000000000 ) ;
#56 =( LENGTH_UNIT ( ) NAMED_UNIT ( * ) SI_UNIT ( .MILLI., .METRE. ) );
#57 = CIRCLE ( 'NONE', #258, 1.510000000000000500 ) ;
#58 = LINE ( 'NONE', #211, #55 ) ;
#59 = SURFACE_STYLE_USAGE ( .BOTH. , #61 ) ;
#60 = LINE ( 'NONE', #216, #53 ) ;
#61 = SURFACE_SIDE_STYLE ('',( #9 ) ) ;
#62 = VECTOR ( 'NONE', #214, 1000.000000000000000 ) ;
#63 = CARTESIAN_POINT ( 'NONE',  ( 7.009999999999998900, -2.200000000000000600, -12.50000000000000000 ) ) ;
#64 = CIRCLE ( 'NONE', #257, 3.009999999999998900 ) ;
#65 = VECTOR ( 'NONE', #215, 1000.000000000000000 ) ;
#66 = FACE_BOUND ( 'NONE', #187, .T. ) ;
#67 = VECTOR ( 'NONE', #220, 1000.000000000000000 ) ;
#68 = DIRECTION ( 'NONE',  ( -0.0000000000000000000, 1.000000000000000000, -0.0000000000000000000 ) ) ;
#69 = LINE ( 'NONE', #217, #65 ) ;
#70 = VECTOR ( 'NONE', #273, 1000.000000000000000 ) ;
#71 = LINE ( 'NONE', #224, #67 ) ;
#72 = CARTESIAN_POINT ( 'NONE',  ( -3.000000000000001800, 6.000000000000000000, 0.0000000000000000000 ) ) ;
#73 = FILL_AREA_STYLE_COLOUR ( '', #12 ) ;
#74 = DIRECTION ( 'NONE',  ( 1.000000000000000000, 0.0000000000000000000, 0.0000000000000000000 ) ) ;
#75 = CYLINDRICAL_SURFACE ( 'NONE', #233, 3.009999999999998900 ) ;
#76 = LINE ( 'NONE', #235, #62 ) ;
#77 = VECTOR ( 'NONE', #227, 1000.000000000000000 ) ;
#78 = LINE ( 'NONE', #229, #77 ) ;
#79 = VECTOR ( 'NONE', #243, 1000.000000000000000 ) ;
#80 = FACE_OUTER_BOUND ( 'NONE', #237, .T. ) ;
#81 = CIRCLE ( 'NONE', #264, 1.249999999999997600 ) ;
#82 = ADVANCED_FACE ( 'NONE', ( #107 ), #102, .F. ) ;
#83 = CIRCLE ( 'NONE', #271, 1.510000000000000500 ) ;
#84 = LINE ( 'NONE', #274, #79 ) ;
#85 = LINE ( 'NONE', #239, #70 ) ;
#86 = VECTOR ( 'NONE', #280, 1000.000000000000000 ) ;
#87 = FACE_OUTER_BOUND ( 'NONE', #236, .T. ) ;
#88 = VECTOR ( 'NONE', #283, 1000.000000000000000 ) ;
#89 = LINE ( 'NONE', #282, #86 ) ;
#90 = VECTOR ( 'NONE', #293, 1000.000000000000000 ) ;
#91 = CIRCLE ( 'NONE', #284, 3.009999999999998900 ) ;
#92 = LINE ( 'NONE', #286, #95 ) ;
#93 =( NAMED_UNIT ( * ) SI_UNIT ( $, .STERADIAN. ) SOLID_ANGLE_UNIT ( ) );
#94 = LINE ( 'NONE', #287, #88 ) ;
#95 = VECTOR ( 'NONE', #285, 1000.000000000000000 ) ;
#96 =( NAMED_UNIT ( * ) PLANE_ANGLE_UNIT ( ) SI_UNIT ( $, .RADIAN. ) );
#97 =( LENGTH_UNIT ( ) NAMED_UNIT ( * ) SI_UNIT ( .MILLI., .METRE. ) );
#98 = PRESENTATION_STYLE_ASSIGNMENT (( #303 ) ) ;
#99 = SURFACE_STYLE_FILL_AREA ( #306 ) ;
#100 = CYLINDRICAL_SURFACE ( 'NONE', #302, 1.510000000000000500 ) ;
#101 = FACE_BOUND ( 'NONE', #186, .T. ) ;
#102 = CONICAL_SURFACE ( 'NONE', #326, 1.249999999999996000, 1.029744258676651400 ) ;
#103 = FACE_OUTER_BOUND ( 'NONE', #199, .T. ) ;
#104 = FACE_OUTER_BOUND ( 'NONE', #172, .T. ) ;
#105 = LINE ( 'NONE', #288, #90 ) ;
#106 = SURFACE_STYLE_USAGE ( .BOTH. , #108 ) ;
#107 = FACE_OUTER_BOUND ( 'NONE', #223, .T. ) ;
#108 = SURFACE_SIDE_STYLE ('',( #27 ) ) ;
#109 = FACE_OUTER_BOUND ( 'NONE', #234, .T. ) ;
#110 = COLOUR_RGB ( '',0.8980392156862745400, 0.9176470588235293700, 0.9294117647058823800 ) ;
#111 = FILL_AREA_STYLE ('',( #73 ) ) ;
#112 = FACE_OUTER_BOUND ( 'NONE', #231, .T. ) ;
#113 = DIRECTION ( 'NONE',  ( -0.0000000000000000000, -0.0000000000000000000, 1.000000000000000000 ) ) ;
#114 = FACE_OUTER_BOUND ( 'NONE', #184, .T. ) ;
#115 = CARTESIAN_POINT ( 'NONE',  ( 5.500000000000000000, 3.000000000000000000, 12.50000000000000000 ) ) ;
#116 = FILL_AREA_STYLE_COLOUR ( '', #26 ) ;
#117 = DIRECTION ( 'NONE',  ( -1.000000000000000000, 0.0000000000000000000, -0.0000000000000000000 ) ) ;
#118 = ORIENTED_EDGE ( 'NONE', *, *, #348, .T. ) ;
#119 = PRODUCT_RELATED_PRODUCT_CATEGORY ( 'part', '', ( #360 ) ) ;
#120 = ORIENTED_EDGE ( 'NONE', *, *, #346, .T. ) ;
#121 = PRODUCT_DEFINITION_FORMATION_WITH_SPECIFIED_SOURCE ( 'ANY', '', #360, .NOT_KNOWN. ) ;
#122 = ORIENTED_EDGE ( 'NONE', *, *, #344, .T. ) ;
#123 = ORIENTED_EDGE ( 'NONE', *, *, #334, .F. ) ;
#124 = ORIENTED_EDGE ( 'NONE', *, *, #341, .T. ) ;
#125 = ORIENTED_EDGE ( 'NONE', *, *, #334, .T. ) ;
#126 = FILL_AREA_STYLE ('',( #116 ) ) ;
#127 = VERTEX_POINT ( 'NONE', #322 ) ;
#128 = PRODUCT_DEFINITION ( 'UNKNOWN', '', #121, #361 ) ;
#129 = PLANE ( 'NONE',  #202 ) ;
#130 = DIRECTION ( 'NONE',  ( 0.0000000000000000000, -0.0000000000000000000, 1.000000000000000000 ) ) ;
#131 = AXIS2_PLACEMENT_3D ( 'NONE', #38, #8, #7 ) ;
#132 = VERTEX_POINT ( 'NONE', #321 ) ;
#133 = DIRECTION ( 'NONE',  ( 0.0000000000000000000, 0.0000000000000000000, -1.000000000000000000 ) ) ;
#134 = ORIENTED_EDGE ( 'NONE', *, *, #339, .F. ) ;
#135 = PLANE ( 'NONE',  #209 ) ;
#136 = ORIENTED_EDGE ( 'NONE', *, *, #349, .T. ) ;
#137 = ORIENTED_EDGE ( 'NONE', *, *, #336, .F. ) ;
#138 = ADVANCED_FACE ( 'NONE', ( #104 ), #319, .F. ) ;
#139 = CARTESIAN_POINT ( 'NONE',  ( -8.000000000000000000, 6.000000000000000000, 12.50000000000000000 ) ) ;
#140 = ORIENTED_EDGE ( 'NONE', *, *, #353, .T. ) ;
#141 = CARTESIAN_POINT ( 'NONE',  ( 0.0000000000000000000, -6.000000000000000000, 0.0000000000000000000 ) ) ;
#142 = ORIENTED_EDGE ( 'NONE', *, *, #345, .T. ) ;
#143 =( GEOMETRIC_REPRESENTATION_CONTEXT ( 3 ) GLOBAL_UNCERTAINTY_ASSIGNED_CONTEXT ( ( #44 ) ) GLOBAL_UNIT_ASSIGNED_CONTEXT ( ( #15, #14, #13 ) ) REPRESENTATION_CONTEXT ( 'NONE', 'WORKASPACE' ) );
#144 = ORIENTED_EDGE ( 'NONE', *, *, #339, .T. ) ;
#145 = DIRECTION ( 'NONE',  ( 1.000000000000000000, 0.0000000000000000000, -0.0000000000000000000 ) ) ;
#146 = MECHANICAL_DESIGN_GEOMETRIC_PRESENTATION_REPRESENTATION (  '', ( #150 ), #143 ) ;
#147 = DIRECTION ( 'NONE',  ( 0.0000000000000000000, 0.0000000000000000000, 1.000000000000000000 ) ) ;
#148 = PRESENTATION_LAYER_ASSIGNMENT (  '', '', ( #150 ) ) ;
#149 = DIRECTION ( 'NONE',  ( 1.000000000000000000, 0.0000000000000000000, 0.0000000000000000000 ) ) ;
#150 = STYLED_ITEM ( 'NONE', ( #363 ), #359 ) ;
#151 = DIRECTION ( 'NONE',  ( -0.0000000000000000000, -0.0000000000000000000, 1.000000000000000000 ) ) ;
#152 = CARTESIAN_POINT ( 'NONE',  ( 5.500000000000000000, 3.000000000000000000, 1.500000000000001300 ) ) ;
#153 = AXIS2_PLACEMENT_3D ( 'NONE', #72, #68, #50 ) ;
#154 = ORIENTED_EDGE ( 'NONE', *, *, #337, .T. ) ;
#155 = ORIENTED_EDGE ( 'NONE', *, *, #343, .T. ) ;
#156 =( GEOMETRIC_REPRESENTATION_CONTEXT ( 3 ) GLOBAL_UNCERTAINTY_ASSIGNED_CONTEXT ( ( #192 ) ) GLOBAL_UNIT_ASSIGNED_CONTEXT ( ( #25, #24, #23 ) ) REPRESENTATION_CONTEXT ( 'NONE', 'WORKASPACE' ) );
#157 = ORIENTED_EDGE ( 'NONE', *, *, #335, .T. ) ;
#158 = EDGE_LOOP ( 'NONE', ( #222 ) ) ;
#159 = DIRECTION ( 'NONE',  ( 0.0000000000000000000, 0.0000000000000000000, 1.000000000000000000 ) ) ;
#160 = ORIENTED_EDGE ( 'NONE', *, *, #347, .T. ) ;
#161 = DIRECTION ( 'NONE',  ( 0.0000000000000000000, 1.000000000000000000, 0.0000000000000000000 ) ) ;
#162 = ORIENTED_EDGE ( 'NONE', *, *, #352, .T. ) ;
#163 = CARTESIAN_POINT ( 'NONE',  ( -3.000000000000001800, -6.000000000000000000, 0.0000000000000000000 ) ) ;
#164 = ORIENTED_EDGE ( 'NONE', *, *, #346, .F. ) ;
#165 =( GEOMETRIC_REPRESENTATION_CONTEXT ( 3 ) GLOBAL_UNCERTAINTY_ASSIGNED_CONTEXT ( ( #210 ) ) GLOBAL_UNIT_ASSIGNED_CONTEXT ( ( #56, #54, #51 ) ) REPRESENTATION_CONTEXT ( 'NONE', 'WORKASPACE' ) );
#166 = CARTESIAN_POINT ( 'NONE',  ( -8.000000000000001800, 6.000000000000000000, -12.50000000000000000 ) ) ;
#167 = DIRECTION ( 'NONE',  ( 0.0000000000000000000, 0.0000000000000000000, 1.000000000000000000 ) ) ;
#168 = MECHANICAL_DESIGN_GEOMETRIC_PRESENTATION_REPRESENTATION (  '', ( #181 ), #165 ) ;
#169 = DIRECTION ( 'NONE',  ( -0.0000000000000000000, 1.000000000000000000, -0.0000000000000000000 ) ) ;
#170 = ORIENTED_EDGE ( 'NONE', *, *, #335, .F. ) ;
#171 = CARTESIAN_POINT ( 'NONE',  ( -3.000000000000001800, 6.000000000000000000, 0.0000000000000000000 ) ) ;
#172 = EDGE_LOOP ( 'NONE', ( #125, #170, #276, #176 ) ) ;
#173 = DIRECTION ( 'NONE',  ( 0.0000000000000000000, 1.000000000000000000, 0.0000000000000000000 ) ) ;
#174 = ORIENTED_EDGE ( 'NONE', *, *, #344, .F. ) ;
#175 = ORIENTED_EDGE ( 'NONE', *, *, #348, .F. ) ;
#176 = ORIENTED_EDGE ( 'NONE', *, *, #331, .T. ) ;
#177 = AXIS2_PLACEMENT_3D ( 'NONE', #115, #113, #74 ) ;
#178 = EDGE_LOOP ( 'NONE', ( #175 ) ) ;
#179 = PLANE ( 'NONE',  #212 ) ;
#180 = EDGE_LOOP ( 'NONE', ( #137 ) ) ;
#181 = STYLED_ITEM ( 'NONE', ( #10 ), #362 ) ;
#182 = DIRECTION ( 'NONE',  ( -1.000000000000000000, -0.0000000000000000000, -0.0000000000000000000 ) ) ;
#183 = SURFACE_STYLE_FILL_AREA ( #19 ) ;
#184 = EDGE_LOOP ( 'NONE', ( #122, #252, #164, #124 ) ) ;
#185 = EDGE_LOOP ( 'NONE', ( #144, #291, #249, #157 ) ) ;
#186 = EDGE_LOOP ( 'NONE', ( #281 ) ) ;
#187 = EDGE_LOOP ( 'NONE', ( #262 ) ) ;
#188 = PRESENTATION_LAYER_ASSIGNMENT (  '', '', ( #181 ) ) ;
#189 = EDGE_LOOP ( 'NONE', ( #123, #261, #174, #134 ) ) ;
#190 = DIRECTION ( 'NONE',  ( -1.000000000000000000, -0.0000000000000000000, -0.0000000000000000000 ) ) ;
#191 = EDGE_LOOP ( 'NONE', ( #162 ) ) ;
#192 = UNCERTAINTY_MEASURE_WITH_UNIT (LENGTH_MEASURE( 1.000000000000000100E-005 ), #25, 'distance_accuracy_value', 'NONE');
#193 =( GEOMETRIC_REPRESENTATION_CONTEXT ( 3 ) GLOBAL_UNCERTAINTY_ASSIGNED_CONTEXT ( ( #213 ) ) GLOBAL_UNIT_ASSIGNED_CONTEXT ( ( #97, #96, #93 ) ) REPRESENTATION_CONTEXT ( 'NONE', 'WORKASPACE' ) );
#194 = DIRECTION ( 'NONE',  ( 1.000000000000000000, 0.0000000000000000000, 0.0000000000000000000 ) ) ;
#195 = VERTEX_POINT ( 'NONE', #311 ) ;
#196 = MECHANICAL_DESIGN_GEOMETRIC_PRESENTATION_REPRESENTATION (  '', ( #208 ), #193 ) ;
#197 = PRESENTATION_LAYER_ASSIGNMENT (  '', '', ( #208 ) ) ;
#198 = DIRECTION ( 'NONE',  ( -0.0000000000000000000, -0.0000000000000000000, -1.000000000000000000 ) ) ;
#199 = EDGE_LOOP ( 'NONE', ( #247, #155, #120, #251 ) ) ;
#200 = CARTESIAN_POINT ( 'NONE',  ( 1.999999999999999600, 4.000000000000000000, -12.50000000000000000 ) ) ;
#201 = ORIENTED_EDGE ( 'NONE', *, *, #351, .T. ) ;
#202 = AXIS2_PLACEMENT_3D ( 'NONE', #139, #133, #117 ) ;
#203 = EDGE_LOOP ( 'NONE', ( #136, #269, #218, #142 ) ) ;
#204 = EDGE_LOOP ( 'NONE', ( #278 ) ) ;
#205 = DIRECTION ( 'NONE',  ( 1.000000000000000000, 0.0000000000000000000, 0.0000000000000000000 ) ) ;
#206 = DIRECTION ( 'NONE',  ( -0.0000000000000000000, -0.0000000000000000000, -1.000000000000000000 ) ) ;
#207 = CARTESIAN_POINT ( 'NONE',  ( 4.000000000000000000, -2.200000000000000600, -12.50000000000000000 ) ) ;
#208 = STYLED_ITEM ( 'NONE', ( #28 ), #357 ) ;
#209 = AXIS2_PLACEMENT_3D ( 'NONE', #141, #173, #130 ) ;
#210 = UNCERTAINTY_MEASURE_WITH_UNIT (LENGTH_MEASURE( 1.000000000000000100E-005 ), #56, 'distance_accuracy_value', 'NONE');
#211 = CARTESIAN_POINT ( 'NONE',  ( -8.000000000000001800, 6.000000000000000000, -12.50000000000000000 ) ) ;
#212 = AXIS2_PLACEMENT_3D ( 'NONE', #166, #147, #145 ) ;
#213 = UNCERTAINTY_MEASURE_WITH_UNIT (LENGTH_MEASURE( 1.000000000000000100E-005 ), #97, 'distance_accuracy_value', 'NONE');
#214 = DIRECTION ( 'NONE',  ( -6.938893903907228400E-017, -0.0000000000000000000, -1.000000000000000000 ) ) ;
#215 = DIRECTION ( 'NONE',  ( -0.0000000000000000000, -1.000000000000000000, -0.0000000000000000000 ) ) ;
#216 = CARTESIAN_POINT ( 'NONE',  ( -8.000000000000001800, -6.000000000000000000, -12.50000000000000000 ) ) ;
#217 = CARTESIAN_POINT ( 'NONE',  ( 7.999999999999998200, 6.000000000000000000, -12.50000000000000000 ) ) ;
#218 = ORIENTED_EDGE ( 'NONE', *, *, #350, .F. ) ;
#219 = EDGE_LOOP ( 'NONE', ( #201 ) ) ;
#220 = DIRECTION ( 'NONE',  ( -6.938893903907228400E-017, -0.0000000000000000000, -1.000000000000000000 ) ) ;
#221 = EDGE_LOOP ( 'NONE', ( #263 ) ) ;
#222 = ORIENTED_EDGE ( 'NONE', *, *, #338, .F. ) ;
#223 = EDGE_LOOP ( 'NONE', ( #140 ) ) ;
#224 = CARTESIAN_POINT ( 'NONE',  ( 7.999999999999998200, -6.000000000000000000, -12.50000000000000000 ) ) ;
#225 = AXIS2_PLACEMENT_3D ( 'NONE', #152, #151, #149 ) ;
#226 = AXIS2_PLACEMENT_3D ( 'NONE', #163, #161, #159 ) ;
#227 = DIRECTION ( 'NONE',  ( -0.0000000000000000000, -1.000000000000000000, -0.0000000000000000000 ) ) ;
#228 = ADVANCED_FACE ( 'NONE', ( #109, #112 ), #100, .F. ) ;
#229 = CARTESIAN_POINT ( 'NONE',  ( 8.000000000000000000, 6.000000000000000000, 12.50000000000000000 ) ) ;
#230 = AXIS2_PLACEMENT_3D ( 'NONE', #171, #169, #167 ) ;
#231 = EDGE_LOOP ( 'NONE', ( #118 ) ) ;
#232 = EDGE_LOOP ( 'NONE', ( #240 ) ) ;
#233 = AXIS2_PLACEMENT_3D ( 'NONE', #260, #241, #242 ) ;
#234 = EDGE_LOOP ( 'NONE', ( #154 ) ) ;
#235 = CARTESIAN_POINT ( 'NONE',  ( 7.999999999999998200, 6.000000000000000000, -12.50000000000000000 ) ) ;
#236 = EDGE_LOOP ( 'NONE', ( #160 ) ) ;
#237 = EDGE_LOOP ( 'NONE', ( #250 ) ) ;
#238 = VERTEX_POINT ( 'NONE', #309 ) ;
#239 = CARTESIAN_POINT ( 'NONE',  ( -8.000000000000000000, 6.000000000000000000, 12.50000000000000000 ) ) ;
#240 = ORIENTED_EDGE ( 'NONE', *, *, #338, .T. ) ;
#241 = DIRECTION ( 'NONE',  ( -0.0000000000000000000, -0.0000000000000000000, 1.000000000000000000 ) ) ;
#242 = DIRECTION ( 'NONE',  ( 1.000000000000000000, 0.0000000000000000000, 0.0000000000000000000 ) ) ;
#243 = DIRECTION ( 'NONE',  ( 1.000000000000000000, 0.0000000000000000000, 0.0000000000000000000 ) ) ;
#244 = DIRECTION ( 'NONE',  ( 1.000000000000000000, 0.0000000000000000000, 0.0000000000000000000 ) ) ;
#245 = MANIFOLD_SOLID_BREP ( 'Cut-Extrude1', #266 ) ;
#246 = DIRECTION ( 'NONE',  ( -0.0000000000000000000, -0.0000000000000000000, 1.000000000000000000 ) ) ;
#247 = ORIENTED_EDGE ( 'NONE', *, *, #332, .T. ) ;
#248 = CARTESIAN_POINT ( 'NONE',  ( 5.500000000000000000, 3.000000000000000000, 12.50000000000000000 ) ) ;
#249 = ORIENTED_EDGE ( 'NONE', *, *, #343, .F. ) ;
#250 = ORIENTED_EDGE ( 'NONE', *, *, #336, .T. ) ;
#251 = ORIENTED_EDGE ( 'NONE', *, *, #350, .T. ) ;
#252 = ORIENTED_EDGE ( 'NONE', *, *, #345, .F. ) ;
#253 = VERTEX_POINT ( 'NONE', #296 ) ;
#254 = DIRECTION ( 'NONE',  ( 1.000000000000000000, 0.0000000000000000000, 0.0000000000000000000 ) ) ;
#255 = VERTEX_POINT ( 'NONE', #314 ) ;
#256 = DIRECTION ( 'NONE',  ( 0.0000000000000000000, 0.0000000000000000000, 1.000000000000000000 ) ) ;
#257 = AXIS2_PLACEMENT_3D ( 'NONE', #207, #206, #205 ) ;
#258 = AXIS2_PLACEMENT_3D ( 'NONE', #200, #198, #194 ) ;
#259 = CARTESIAN_POINT ( 'NONE',  ( 1.999999999999999600, 4.000000000000000000, 12.50000000000000000 ) ) ;
#260 = CARTESIAN_POINT ( 'NONE',  ( 4.000000000000000000, -2.200000000000000600, -12.50100000000000100 ) ) ;
#261 = ORIENTED_EDGE ( 'NONE', *, *, #349, .F. ) ;
#262 = ORIENTED_EDGE ( 'NONE', *, *, #347, .F. ) ;
#263 = ORIENTED_EDGE ( 'NONE', *, *, #353, .F. ) ;
#264 = AXIS2_PLACEMENT_3D ( 'NONE', #248, #246, #244 ) ;
#265 = DIRECTION ( 'NONE',  ( 1.000000000000000000, 0.0000000000000000000, 0.0000000000000000000 ) ) ;
#266 = CLOSED_SHELL ( 'NONE', ( #138, #356, #16, #354, #297, #355, #362, #82, #357, #228, #340 ) ) ;
#267 = DIRECTION ( 'NONE',  ( 0.0000000000000000000, 0.0000000000000000000, 1.000000000000000000 ) ) ;
#268 = VERTEX_POINT ( 'NONE', #298 ) ;
#269 = ORIENTED_EDGE ( 'NONE', *, *, #331, .F. ) ;
#270 = CARTESIAN_POINT ( 'NONE',  ( 4.000000000000000000, -2.200000000000000600, 12.50000000000000000 ) ) ;
#271 = AXIS2_PLACEMENT_3D ( 'NONE', #259, #256, #254 ) ;
#272 = UNCERTAINTY_MEASURE_WITH_UNIT (LENGTH_MEASURE( 1.000000000000000100E-005 ), #301, 'distance_accuracy_value', 'NONE');
#273 = DIRECTION ( 'NONE',  ( 1.000000000000000000, 0.0000000000000000000, 0.0000000000000000000 ) ) ;
#274 = CARTESIAN_POINT ( 'NONE',  ( -8.000000000000000000, -6.000000000000000000, 12.50000000000000000 ) ) ;
#275 = AXIS2_PLACEMENT_3D ( 'NONE', #295, #290, #289 ) ;
#276 = ORIENTED_EDGE ( 'NONE', *, *, #332, .F. ) ;
#277 = ORIENTED_EDGE ( 'NONE', *, *, #337, .F. ) ;
#278 = ORIENTED_EDGE ( 'NONE', *, *, #352, .F. ) ;
#279 = VERTEX_POINT ( 'NONE', #308 ) ;
#280 = DIRECTION ( 'NONE',  ( -0.0000000000000000000, -1.000000000000000000, -0.0000000000000000000 ) ) ;
#281 = ORIENTED_EDGE ( 'NONE', *, *, #351, .F. ) ;
#282 = CARTESIAN_POINT ( 'NONE',  ( -8.000000000000000000, 6.000000000000000000, 12.50000000000000000 ) ) ;
#283 = DIRECTION ( 'NONE',  ( 6.938893903907228400E-017, 0.0000000000000000000, 1.000000000000000000 ) ) ;
#284 = AXIS2_PLACEMENT_3D ( 'NONE', #270, #267, #265 ) ;
#285 = DIRECTION ( 'NONE',  ( -0.0000000000000000000, -1.000000000000000000, -0.0000000000000000000 ) ) ;
#286 = CARTESIAN_POINT ( 'NONE',  ( -8.000000000000001800, 6.000000000000000000, -12.50000000000000000 ) ) ;
#287 = CARTESIAN_POINT ( 'NONE',  ( -8.000000000000001800, -6.000000000000000000, -12.50000000000000000 ) ) ;
#288 = CARTESIAN_POINT ( 'NONE',  ( -8.000000000000001800, 6.000000000000000000, -12.50000000000000000 ) ) ;
#289 = DIRECTION ( 'NONE',  ( 0.0000000000000000000, -0.0000000000000000000, 1.000000000000000000 ) ) ;
#290 = DIRECTION ( 'NONE',  ( 0.0000000000000000000, 1.000000000000000000, 0.0000000000000000000 ) ) ;
#291 = ORIENTED_EDGE ( 'NONE', *, *, #341, .F. ) ;
#292 =( GEOMETRIC_REPRESENTATION_CONTEXT ( 3 ) GLOBAL_UNCERTAINTY_ASSIGNED_CONTEXT ( ( #272 ) ) GLOBAL_UNIT_ASSIGNED_CONTEXT ( ( #301, #300, #299 ) ) REPRESENTATION_CONTEXT ( 'NONE', 'WORKASPACE' ) );
#293 = DIRECTION ( 'NONE',  ( 6.938893903907228400E-017, 0.0000000000000000000, 1.000000000000000000 ) ) ;
#294 = MECHANICAL_DESIGN_GEOMETRIC_PRESENTATION_REPRESENTATION (  '', ( #304 ), #292 ) ;
#295 = CARTESIAN_POINT ( 'NONE',  ( 0.0000000000000000000, 6.000000000000000000, 0.0000000000000000000 ) ) ;
#296 = CARTESIAN_POINT ( 'NONE',  ( -8.000000000000001800, 6.000000000000000000, -12.50000000000000000 ) ) ;
#297 = ADVANCED_FACE ( 'NONE', ( #101, #103 ), #315, .T. ) ;
#298 = CARTESIAN_POINT ( 'NONE',  ( 8.000000000000000000, 6.000000000000000000, 12.50000000000000000 ) ) ;
#299 =( NAMED_UNIT ( * ) SI_UNIT ( $, .STERADIAN. ) SOLID_ANGLE_UNIT ( ) );
#300 =( NAMED_UNIT ( * ) PLANE_ANGLE_UNIT ( ) SI_UNIT ( $, .RADIAN. ) );
#301 =( LENGTH_UNIT ( ) NAMED_UNIT ( * ) SI_UNIT ( .MILLI., .METRE. ) );
#302 = AXIS2_PLACEMENT_3D ( 'NONE', #313, #310, #329 ) ;
#303 = SURFACE_STYLE_USAGE ( .BOTH. , #305 ) ;
#304 = STYLED_ITEM ( 'NONE', ( #98 ), #245 ) ;
#305 = SURFACE_SIDE_STYLE ('',( #99 ) ) ;
#306 = FILL_AREA_STYLE ('',( #307 ) ) ;
#307 = FILL_AREA_STYLE_COLOUR ( '', #110 ) ;
#308 = CARTESIAN_POINT ( 'NONE',  ( 8.000000000000000000, -6.000000000000000000, 12.50000000000000000 ) ) ;
#309 = CARTESIAN_POINT ( 'NONE',  ( -8.000000000000001800, -6.000000000000000000, -12.50000000000000000 ) ) ;
#310 = DIRECTION ( 'NONE',  ( -0.0000000000000000000, -0.0000000000000000000, 1.000000000000000000 ) ) ;
#311 = CARTESIAN_POINT ( 'NONE',  ( 7.999999999999998200, 6.000000000000000000, -12.50000000000000000 ) ) ;
#312 = AXIS2_PLACEMENT_3D ( 'NONE', #320, #318, #316 ) ;
#313 = CARTESIAN_POINT ( 'NONE',  ( 1.999999999999999600, 4.000000000000000000, -12.50100000000000100 ) ) ;
#314 = CARTESIAN_POINT ( 'NONE',  ( -8.000000000000000000, 6.000000000000000000, 12.50000000000000000 ) ) ;
#315 = PLANE ( 'NONE',  #275 ) ;
#316 = DIRECTION ( 'NONE',  ( -6.938893903907227100E-017, 0.0000000000000000000, -1.000000000000000000 ) ) ;
#317 = PRESENTATION_LAYER_ASSIGNMENT (  '', '', ( #304 ) ) ;
#318 = DIRECTION ( 'NONE',  ( 1.000000000000000000, 0.0000000000000000000, -6.938893903907227100E-017 ) ) ;
#319 = PLANE ( 'NONE',  #312 ) ;
#320 = CARTESIAN_POINT ( 'NONE',  ( -8.000000000000001800, 6.000000000000000000, -12.50000000000000000 ) ) ;
#321 = CARTESIAN_POINT ( 'NONE',  ( -8.000000000000000000, -6.000000000000000000, 12.50000000000000000 ) ) ;
#322 = CARTESIAN_POINT ( 'NONE',  ( 7.999999999999998200, -6.000000000000000000, -12.50000000000000000 ) ) ;
#323 = DIRECTION ( 'NONE',  ( -0.0000000000000000000, -0.0000000000000000000, 1.000000000000000000 ) ) ;
#324 = AXIS2_PLACEMENT_3D ( 'NONE', #327, #328, #342 ) ;
#325 = PLANE ( 'NONE',  #324 ) ;
#326 = AXIS2_PLACEMENT_3D ( 'NONE', #330, #323, #333 ) ;
#327 = CARTESIAN_POINT ( 'NONE',  ( 7.999999999999998200, 6.000000000000000000, -12.50000000000000000 ) ) ;
#328 = DIRECTION ( 'NONE',  ( -1.000000000000000000, 0.0000000000000000000, 6.938893903907227100E-017 ) ) ;
#329 = DIRECTION ( 'NONE',  ( 1.000000000000000000, 0.0000000000000000000, 0.0000000000000000000 ) ) ;
#330 = CARTESIAN_POINT ( 'NONE',  ( 5.500000000000000000, 3.000000000000000000, 1.500000000000001300 ) ) ;
#331 = EDGE_CURVE ( 'NONE', #253, #238, #92, .T. ) ;
#332 = EDGE_CURVE ( 'NONE', #253, #255, #105, .T. ) ;
#333 = DIRECTION ( 'NONE',  ( 1.000000000000000000, 0.0000000000000000000, 0.0000000000000000000 ) ) ;
#334 = EDGE_CURVE ( 'NONE', #238, #132, #94, .T. ) ;
#335 = EDGE_CURVE ( 'NONE', #255, #132, #89, .T. ) ;
#336 = EDGE_CURVE ( 'NONE', #373, #373, #91, .T. ) ;
#337 = EDGE_CURVE ( 'NONE', #371, #371, #83, .T. ) ;
#338 = EDGE_CURVE ( 'NONE', #370, #370, #81, .T. ) ;
#339 = EDGE_CURVE ( 'NONE', #132, #279, #84, .T. ) ;
#340 = ADVANCED_FACE ( 'NONE', ( #80, #87 ), #75, .F. ) ;
#341 = EDGE_CURVE ( 'NONE', #268, #279, #78, .T. ) ;
#342 = DIRECTION ( 'NONE',  ( 6.938893903907227100E-017, 0.0000000000000000000, 1.000000000000000000 ) ) ;
#343 = EDGE_CURVE ( 'NONE', #255, #268, #85, .T. ) ;
#344 = EDGE_CURVE ( 'NONE', #279, #127, #71, .T. ) ;
#345 = EDGE_CURVE ( 'NONE', #195, #127, #69, .T. ) ;
#346 = EDGE_CURVE ( 'NONE', #268, #195, #76, .T. ) ;
#347 = EDGE_CURVE ( 'NONE', #369, #369, #64, .T. ) ;
#348 = EDGE_CURVE ( 'NONE', #368, #368, #57, .T. ) ;
#349 = EDGE_CURVE ( 'NONE', #127, #238, #60, .T. ) ;
#350 = EDGE_CURVE ( 'NONE', #195, #253, #58, .T. ) ;
#351 = EDGE_CURVE ( 'NONE', #367, #367, #52, .T. ) ;
#352 = EDGE_CURVE ( 'NONE', #366, #366, #46, .T. ) ;
#353 = EDGE_CURVE ( 'NONE', #365, #365, #45, .T. ) ;
#354 = ADVANCED_FACE ( 'NONE', ( #66, #42, #49 ), #179, .F. ) ;
#355 = ADVANCED_FACE ( 'NONE', ( #43, #33 ), #135, .F. ) ;
#356 = ADVANCED_FACE ( 'NONE', ( #35, #30, #40, #32 ), #129, .F. ) ;
#357 = ADVANCED_FACE ( 'NONE', ( #48, #22 ), #4, .F. ) ;
#358 = PRODUCT_DEFINITION_SHAPE ( 'NONE', 'NONE',  #128 ) ;
#359 = ADVANCED_BREP_SHAPE_REPRESENTATION ( '1049-A2P-A', ( #245, #131 ), #156 ) ;
#360 = PRODUCT ( '1049-A2P-A', '1049-A2P-A', '', ( #6 ) ) ;
#361 = PRODUCT_DEFINITION_CONTEXT ( 'detailed design', #5, 'design' ) ;
#362 = ADVANCED_FACE ( 'NONE', ( #11, #2 ), #372, .F. ) ;
#363 = PRESENTATION_STYLE_ASSIGNMENT (( #17 ) ) ;
#364 = COLOUR_RGB ( '',0.8980392156862745400, 0.9176470588235293700, 0.9294117647058823800 ) ;
#365 = VERTEX_POINT ( 'NONE', #31 ) ;
#366 = VERTEX_POINT ( 'NONE', #34 ) ;
#367 = VERTEX_POINT ( 'NONE', #36 ) ;
#368 = VERTEX_POINT ( 'NONE', #37 ) ;
#369 = VERTEX_POINT ( 'NONE', #63 ) ;
#370 = VERTEX_POINT ( 'NONE', #39 ) ;
#371 = VERTEX_POINT ( 'NONE', #47 ) ;
#372 = CYLINDRICAL_SURFACE ( 'NONE', #153, 2.499999999999997800 ) ;
#373 = VERTEX_POINT ( 'NONE', #41 ) ;
#374 = SHAPE_DEFINITION_REPRESENTATION ( #358, #359 ) ;
ENDSEC;
END-ISO-10303-21;
