ISO-10303-21;
HEADER;
FILE_DESCRIPTION (( 'STEP AP214' ),
    '1' );
FILE_NAME ('1029-A2P-A.STEP',
    '2013-05-15T14:39:30',
    ( '3DAssist' ),
    ( '' ),
    'SwSTEP 2.0',
    'SolidWorks 2013',
    '' );
FILE_SCHEMA (( 'AUTOMOTIVE_DESIGN' ));
ENDSEC;

DATA;
#1 = VECTOR ( 'NONE', #329, 999.9999999999998900 ) ;
#2 = VECTOR ( 'NONE', #396, 1000.000000000000000 ) ;
#3 = CARTESIAN_POINT ( 'NONE',  ( 3.731614200057377300, -13.94016279466409000, 4.000000000000000000 ) ) ;
#4 = VECTOR ( 'NONE', #371, 999.9999999999998900 ) ;
#5 = DIRECTION ( 'NONE',  ( 1.000000000000000000, 0.0000000000000000000, 0.0000000000000000000 ) ) ;
#6 = CARTESIAN_POINT ( 'NONE',  ( 0.0000000000000000000, -12.50019270498792200, 4.000000000000000000 ) ) ;
#7 = LINE ( 'NONE', #19, #93 ) ;
#8 = DIRECTION ( 'NONE',  ( 0.0000000000000000000, 0.0000000000000000000, 1.000000000000000000 ) ) ;
#9 = DIRECTION ( 'NONE',  ( 1.000000000000000000, 0.0000000000000000000, 0.0000000000000000000 ) ) ;
#10 = VERTEX_POINT ( 'NONE', #395 ) ;
#11 = CIRCLE ( 'NONE', #288, 3.999807295012080200 ) ;
#12 = DIRECTION ( 'NONE',  ( 1.000000000000000000, 0.0000000000000000000, 0.0000000000000000000 ) ) ;
#13 = PRESENTATION_STYLE_ASSIGNMENT (( #390 ) ) ;
#14 = LINE ( 'NONE', #320, #4 ) ;
#15 = DIRECTION ( 'NONE',  ( 0.0000000000000000000, 0.0000000000000000000, 1.000000000000000000 ) ) ;
#16 = CARTESIAN_POINT ( 'NONE',  ( 3.731614200057377300, -13.94016279466409000, 4.000000000000000000 ) ) ;
#17 = CARTESIAN_POINT ( 'NONE',  ( 0.0000000000000000000, -12.50019270498792200, 0.0000000000000000000 ) ) ;
#18 = CARTESIAN_POINT ( 'NONE',  ( 7.930062215757800500, 3.060083863917863600, 4.000000000000000000 ) ) ;
#19 = CARTESIAN_POINT ( 'NONE',  ( -3.731614200057378200, -13.94016279466408800, 4.000000000000000000 ) ) ;
#20 = DIRECTION ( 'NONE',  ( -1.000000000000000000, 0.0000000000000000000, 0.0000000000000000000 ) ) ;
#21 = CARTESIAN_POINT ( 'NONE',  ( 0.0000000000000000000, 0.0000000000000000000, 0.0000000000000000000 ) ) ;
#22 = CARTESIAN_POINT ( 'NONE',  ( 3.731614200057377800, 13.94016279466409000, 4.000000000000000000 ) ) ;
#23 = DIRECTION ( 'NONE',  ( 0.9329484959715060900, 0.3600098663432780300, -0.0000000000000000000 ) ) ;
#24 = LINE ( 'NONE', #218, #83 ) ;
#25 = DIRECTION ( 'NONE',  ( -0.3600098663432780300, 0.9329484959715060900, 0.0000000000000000000 ) ) ;
#26 = CARTESIAN_POINT ( 'NONE',  ( -3.731614200057377300, -13.94016279466409000, 4.000000000000000000 ) ) ;
#27 = DIRECTION ( 'NONE',  ( 0.3600098663432780300, 0.9329484959715060900, 0.0000000000000000000 ) ) ;
#28 = PLANE ( 'NONE',  #311 ) ;
#29 = CARTESIAN_POINT ( 'NONE',  ( 0.0000000000000000000, 12.50019270498792200, 4.000000000000000000 ) ) ;
#30 = CARTESIAN_POINT ( 'NONE',  ( -3.731614200057377300, -13.94016279466409000, 4.000000000000000000 ) ) ;
#31 = VECTOR ( 'NONE', #406, 999.9999999999998900 ) ;
#32 = LINE ( 'NONE', #409, #31 ) ;
#33 = DIRECTION ( 'NONE',  ( 0.3600098663432780300, -0.9329484959715060900, 0.0000000000000000000 ) ) ;
#34 = CARTESIAN_POINT ( 'NONE',  ( 0.0000000000000000000, 0.0000000000000000000, 4.000000000000000000 ) ) ;
#35 = DIRECTION ( 'NONE',  ( -1.000000000000000000, 0.0000000000000000000, 0.0000000000000000000 ) ) ;
#36 = CARTESIAN_POINT ( 'NONE',  ( 0.0000000000000000000, -12.50019270498792200, 0.0000000000000000000 ) ) ;
#37 = CIRCLE ( 'NONE', #280, 1.499995563816462600 ) ;
#38 = SHAPE_DEFINITION_REPRESENTATION ( #289, #283 ) ;
#39 = PLANE ( 'NONE',  #309 ) ;
#40 = DIRECTION ( 'NONE',  ( -0.0000000000000000000, -0.0000000000000000000, -1.000000000000000000 ) ) ;
#41 = CARTESIAN_POINT ( 'NONE',  ( 0.0000000000000000000, 12.50019270498792200, 4.000000000000000000 ) ) ;
#42 = DIRECTION ( 'NONE',  ( 0.0000000000000000000, 0.0000000000000000000, 1.000000000000000000 ) ) ;
#43 = CARTESIAN_POINT ( 'NONE',  ( 0.0000000000000000000, -12.50019270498792200, 4.000000000000000000 ) ) ;
#44 = DIRECTION ( 'NONE',  ( 0.0000000000000000000, 0.0000000000000000000, 1.000000000000000000 ) ) ;
#45 = SURFACE_STYLE_FILL_AREA ( #363 ) ;
#46 = CARTESIAN_POINT ( 'NONE',  ( -7.930062215757800500, 3.060083863917863600, 0.0000000000000000000 ) ) ;
#47 = CARTESIAN_POINT ( 'NONE',  ( 0.0000000000000000000, -12.50019270498792200, 4.000000000000000000 ) ) ;
#48 = FACE_OUTER_BOUND ( 'NONE', #111, .T. ) ;
#49 = CLOSED_SHELL ( 'NONE', ( #262, #247, #245, #273, #259, #270, #236, #252, #256, #215, #266, #217 ) ) ;
#50 = EDGE_LOOP ( 'NONE', ( #180, #182, #100, #184 ) ) ;
#51 = DIRECTION ( 'NONE',  ( 0.0000000000000000000, 0.0000000000000000000, 1.000000000000000000 ) ) ;
#52 = UNCERTAINTY_MEASURE_WITH_UNIT (LENGTH_MEASURE( 1.000000000000000100E-005 ), #375, 'distance_accuracy_value', 'NONE');
#53 = COLOUR_RGB ( '',0.9019607843137255100, 0.8117647058823529400, 0.5725490196078431000 ) ;
#54 = DIRECTION ( 'NONE',  ( 0.0000000000000000000, 0.0000000000000000000, 1.000000000000000000 ) ) ;
#55 = VERTEX_POINT ( 'NONE', #379 ) ;
#56 = VERTEX_POINT ( 'NONE', #382 ) ;
#57 = DIRECTION ( 'NONE',  ( -1.000000000000000000, 0.0000000000000000000, 0.0000000000000000000 ) ) ;
#58 = CARTESIAN_POINT ( 'NONE',  ( 7.930062215757800500, -3.060083863917860900, 4.000000000000000000 ) ) ;
#59 = VERTEX_POINT ( 'NONE', #294 ) ;
#60 = CARTESIAN_POINT ( 'NONE',  ( 3.731614200057377300, -13.94016279466409000, 0.0000000000000000000 ) ) ;
#61 = LINE ( 'NONE', #92, #88 ) ;
#62 = CIRCLE ( 'NONE', #278, 3.999807295012080200 ) ;
#63 = DIRECTION ( 'NONE',  ( -0.9329484959715060900, -0.3600098663432780300, 0.0000000000000000000 ) ) ;
#64 = VECTOR ( 'NONE', #312, 999.9999999999998900 ) ;
#65 = FACE_OUTER_BOUND ( 'NONE', #109, .T. ) ;
#66 = VERTEX_POINT ( 'NONE', #178 ) ;
#67 = DIRECTION ( 'NONE',  ( 0.0000000000000000000, 0.0000000000000000000, 1.000000000000000000 ) ) ;
#68 = LINE ( 'NONE', #18, #64 ) ;
#69 = LINE ( 'NONE', #170, #119 ) ;
#70 = CIRCLE ( 'NONE', #306, 3.999807295012080200 ) ;
#71 = PLANE ( 'NONE',  #315 ) ;
#72 = DIRECTION ( 'NONE',  ( 1.000000000000000000, 0.0000000000000000000, -0.0000000000000000000 ) ) ;
#73 = VECTOR ( 'NONE', #305, 999.9999999999998900 ) ;
#74 = CIRCLE ( 'NONE', #302, 8.499999999999998200 ) ;
#75 = DIRECTION ( 'NONE',  ( -0.0000000000000000000, -0.0000000000000000000, -1.000000000000000000 ) ) ;
#76 = CIRCLE ( 'NONE', #308, 8.499999999999998200 ) ;
#77 = LINE ( 'NONE', #398, #2 ) ;
#78 = DIRECTION ( 'NONE',  ( -0.0000000000000000000, -0.0000000000000000000, -1.000000000000000000 ) ) ;
#79 = CIRCLE ( 'NONE', #303, 8.499999999999998200 ) ;
#80 = CIRCLE ( 'NONE', #304, 1.499995563816462800 ) ;
#81 = CIRCLE ( 'NONE', #292, 8.499999999999998200 ) ;
#82 = LINE ( 'NONE', #360, #1 ) ;
#83 = VECTOR ( 'NONE', #318, 1000.000000000000000 ) ;
#84 = VECTOR ( 'NONE', #194, 999.9999999999998900 ) ;
#85 = DIRECTION ( 'NONE',  ( -0.9329484959715060900, 0.3600098663432780300, 0.0000000000000000000 ) ) ;
#86 = CIRCLE ( 'NONE', #282, 3.999807295012080200 ) ;
#87 = LINE ( 'NONE', #229, #84 ) ;
#88 = VECTOR ( 'NONE', #27, 999.9999999999998900 ) ;
#89 = DIRECTION ( 'NONE',  ( 0.0000000000000000000, 0.0000000000000000000, 1.000000000000000000 ) ) ;
#90 = LINE ( 'NONE', #22, #96 ) ;
#91 = LINE ( 'NONE', #293, #275 ) ;
#92 = CARTESIAN_POINT ( 'NONE',  ( 3.731614200057377300, -13.94016279466409000, 4.000000000000000000 ) ) ;
#93 = VECTOR ( 'NONE', #40, 1000.000000000000000 ) ;
#94 = SURFACE_STYLE_FILL_AREA ( #394 ) ;
#95 = LINE ( 'NONE', #402, #220 ) ;
#96 = VECTOR ( 'NONE', #404, 1000.000000000000000 ) ;
#97 = VERTEX_POINT ( 'NONE', #380 ) ;
#98 = VERTEX_POINT ( 'NONE', #117 ) ;
#99 = ORIENTED_EDGE ( 'NONE', *, *, #368, .F. ) ;
#100 = ORIENTED_EDGE ( 'NONE', *, *, #337, .F. ) ;
#101 = ORIENTED_EDGE ( 'NONE', *, *, #389, .F. ) ;
#102 = ORIENTED_EDGE ( 'NONE', *, *, #366, .F. ) ;
#103 = ORIENTED_EDGE ( 'NONE', *, *, #358, .T. ) ;
#104 = DIRECTION ( 'NONE',  ( 0.0000000000000000000, 0.0000000000000000000, 1.000000000000000000 ) ) ;
#105 = VERTEX_POINT ( 'NONE', #343 ) ;
#106 = EDGE_LOOP ( 'NONE', ( #185, #187, #186, #188 ) ) ;
#107 = VERTEX_POINT ( 'NONE', #46 ) ;
#108 = EDGE_LOOP ( 'NONE', ( #125, #129, #127, #138, #137, #136, #134, #144 ) ) ;
#109 = EDGE_LOOP ( 'NONE', ( #159, #161, #162, #163 ) ) ;
#110 = FACE_OUTER_BOUND ( 'NONE', #50, .T. ) ;
#111 = EDGE_LOOP ( 'NONE', ( #183, #101, #197, #103 ) ) ;
#112 = DIRECTION ( 'NONE',  ( -0.0000000000000000000, -0.0000000000000000000, -1.000000000000000000 ) ) ;
#113 = UNCERTAINTY_MEASURE_WITH_UNIT (LENGTH_MEASURE( 1.000000000000000100E-005 ), #352, 'distance_accuracy_value', 'NONE');
#114 = EDGE_LOOP ( 'NONE', ( #176, #177, #99, #181 ) ) ;
#115 = EDGE_LOOP ( 'NONE', ( #171, #172, #173, #174 ) ) ;
#116 = EDGE_LOOP ( 'NONE', ( #164, #166, #167, #169 ) ) ;
#117 = CARTESIAN_POINT ( 'NONE',  ( -3.731614200057378200, -13.94016279466408800, 0.0000000000000000000 ) ) ;
#118 = FACE_OUTER_BOUND ( 'NONE', #106, .T. ) ;
#119 = VECTOR ( 'NONE', #153, 1000.000000000000000 ) ;
#120 = FACE_BOUND ( 'NONE', #126, .T. ) ;
#121 = DIRECTION ( 'NONE',  ( -1.000000000000000000, 0.0000000000000000000, 0.0000000000000000000 ) ) ;
#122 = DIRECTION ( 'NONE',  ( 0.3600098663432780300, 0.9329484959715060900, 0.0000000000000000000 ) ) ;
#123 = FACE_OUTER_BOUND ( 'NONE', #199, .T. ) ;
#124 = FACE_OUTER_BOUND ( 'NONE', #206, .T. ) ;
#125 = ORIENTED_EDGE ( 'NONE', *, *, #335, .T. ) ;
#126 = EDGE_LOOP ( 'NONE', ( #156 ) ) ;
#127 = ORIENTED_EDGE ( 'NONE', *, *, #331, .T. ) ;
#128 = EDGE_LOOP ( 'NONE', ( #190 ) ) ;
#129 = ORIENTED_EDGE ( 'NONE', *, *, #332, .T. ) ;
#130 = DIRECTION ( 'NONE',  ( 0.3600098663432780300, 0.9329484959715060900, 0.0000000000000000000 ) ) ;
#131 = ORIENTED_EDGE ( 'NONE', *, *, #333, .F. ) ;
#132 = ORIENTED_EDGE ( 'NONE', *, *, #364, .F. ) ;
#133 = DIRECTION ( 'NONE',  ( -0.3600098663432780300, -0.9329484959715060900, 0.0000000000000000000 ) ) ;
#134 = ORIENTED_EDGE ( 'NONE', *, *, #364, .T. ) ;
#135 = VERTEX_POINT ( 'NONE', #281 ) ;
#136 = ORIENTED_EDGE ( 'NONE', *, *, #338, .T. ) ;
#137 = ORIENTED_EDGE ( 'NONE', *, *, #337, .T. ) ;
#138 = ORIENTED_EDGE ( 'NONE', *, *, #368, .T. ) ;
#139 = ORIENTED_EDGE ( 'NONE', *, *, #348, .F. ) ;
#140 = CARTESIAN_POINT ( 'NONE',  ( 0.0000000000000000000, -12.50019270498792200, 4.000000000000000000 ) ) ;
#141 = ORIENTED_EDGE ( 'NONE', *, *, #345, .F. ) ;
#142 = ORIENTED_EDGE ( 'NONE', *, *, #285, .T. ) ;
#143 = ORIENTED_EDGE ( 'NONE', *, *, #267, .F. ) ;
#144 = ORIENTED_EDGE ( 'NONE', *, *, #340, .T. ) ;
#145 = ORIENTED_EDGE ( 'NONE', *, *, #362, .F. ) ;
#146 = DIRECTION ( 'NONE',  ( 1.000000000000000000, 0.0000000000000000000, 0.0000000000000000000 ) ) ;
#147 = ORIENTED_EDGE ( 'NONE', *, *, #319, .F. ) ;
#148 = ORIENTED_EDGE ( 'NONE', *, *, #359, .F. ) ;
#149 = DIRECTION ( 'NONE',  ( 0.0000000000000000000, 0.0000000000000000000, 1.000000000000000000 ) ) ;
#150 = EDGE_LOOP ( 'NONE', ( #189 ) ) ;
#151 = ORIENTED_EDGE ( 'NONE', *, *, #356, .F. ) ;
#152 = EDGE_LOOP ( 'NONE', ( #142 ) ) ;
#153 = DIRECTION ( 'NONE',  ( -0.0000000000000000000, -0.0000000000000000000, -1.000000000000000000 ) ) ;
#154 = ORIENTED_EDGE ( 'NONE', *, *, #369, .F. ) ;
#155 = ORIENTED_EDGE ( 'NONE', *, *, #388, .F. ) ;
#156 = ORIENTED_EDGE ( 'NONE', *, *, #366, .T. ) ;
#157 = VERTEX_POINT ( 'NONE', #301 ) ;
#158 = CARTESIAN_POINT ( 'NONE',  ( 0.0000000000000000000, 12.50019270498792200, 4.000000000000000000 ) ) ;
#159 = ORIENTED_EDGE ( 'NONE', *, *, #345, .T. ) ;
#160 = PLANE ( 'NONE',  #323 ) ;
#161 = ORIENTED_EDGE ( 'NONE', *, *, #393, .F. ) ;
#162 = ORIENTED_EDGE ( 'NONE', *, *, #335, .F. ) ;
#163 = ORIENTED_EDGE ( 'NONE', *, *, #258, .T. ) ;
#164 = ORIENTED_EDGE ( 'NONE', *, *, #388, .T. ) ;
#165 = VERTEX_POINT ( 'NONE', #339 ) ;
#166 = ORIENTED_EDGE ( 'NONE', *, *, #387, .F. ) ;
#167 = ORIENTED_EDGE ( 'NONE', *, *, #332, .F. ) ;
#168 = DIRECTION ( 'NONE',  ( 1.000000000000000000, 0.0000000000000000000, -0.0000000000000000000 ) ) ;
#169 = ORIENTED_EDGE ( 'NONE', *, *, #393, .T. ) ;
#170 = CARTESIAN_POINT ( 'NONE',  ( 7.930062215757800500, -3.060083863917860900, 4.000000000000000000 ) ) ;
#171 = ORIENTED_EDGE ( 'NONE', *, *, #369, .T. ) ;
#172 = ORIENTED_EDGE ( 'NONE', *, *, #391, .F. ) ;
#173 = ORIENTED_EDGE ( 'NONE', *, *, #331, .F. ) ;
#174 = ORIENTED_EDGE ( 'NONE', *, *, #387, .T. ) ;
#175 = CARTESIAN_POINT ( 'NONE',  ( -7.930062215757800500, 3.060083863917863600, 4.000000000000000000 ) ) ;
#176 = ORIENTED_EDGE ( 'NONE', *, *, #362, .T. ) ;
#177 = ORIENTED_EDGE ( 'NONE', *, *, #361, .F. ) ;
#178 = CARTESIAN_POINT ( 'NONE',  ( 3.731614200057377800, 13.94016279466409000, 0.0000000000000000000 ) ) ;
#179 = PRODUCT_DEFINITION_CONTEXT ( 'detailed design', #342, 'design' ) ;
#180 = ORIENTED_EDGE ( 'NONE', *, *, #319, .T. ) ;
#181 = ORIENTED_EDGE ( 'NONE', *, *, #391, .T. ) ;
#182 = ORIENTED_EDGE ( 'NONE', *, *, #358, .F. ) ;
#183 = ORIENTED_EDGE ( 'NONE', *, *, #359, .T. ) ;
#184 = ORIENTED_EDGE ( 'NONE', *, *, #361, .T. ) ;
#185 = ORIENTED_EDGE ( 'NONE', *, *, #348, .T. ) ;
#186 = ORIENTED_EDGE ( 'NONE', *, *, #340, .F. ) ;
#187 = ORIENTED_EDGE ( 'NONE', *, *, #258, .F. ) ;
#188 = ORIENTED_EDGE ( 'NONE', *, *, #341, .T. ) ;
#189 = ORIENTED_EDGE ( 'NONE', *, *, #285, .F. ) ;
#190 = ORIENTED_EDGE ( 'NONE', *, *, #333, .T. ) ;
#191 = ORIENTED_EDGE ( 'NONE', *, *, #267, .T. ) ;
#192 = VERTEX_POINT ( 'NONE', #16 ) ;
#193 = VERTEX_POINT ( 'NONE', #226 ) ;
#194 = DIRECTION ( 'NONE',  ( -0.3600098663432780300, 0.9329484959715060900, 0.0000000000000000000 ) ) ;
#195 = ORIENTED_EDGE ( 'NONE', *, *, #389, .T. ) ;
#196 = ORIENTED_EDGE ( 'NONE', *, *, #341, .F. ) ;
#197 = ORIENTED_EDGE ( 'NONE', *, *, #338, .F. ) ;
#198 = ORIENTED_EDGE ( 'NONE', *, *, #356, .T. ) ;
#199 = EDGE_LOOP ( 'NONE', ( #191 ) ) ;
#200 = EDGE_LOOP ( 'NONE', ( #141, #139, #151, #148, #147, #145, #154, #155 ) ) ;
#201 = VERTEX_POINT ( 'NONE', #257 ) ;
#202 = VERTEX_POINT ( 'NONE', #175 ) ;
#203 = EDGE_LOOP ( 'NONE', ( #143 ) ) ;
#204 = VERTEX_POINT ( 'NONE', #58 ) ;
#205 = VERTEX_POINT ( 'NONE', #307 ) ;
#206 = EDGE_LOOP ( 'NONE', ( #102 ) ) ;
#207 = DIRECTION ( 'NONE',  ( -1.000000000000000000, 0.0000000000000000000, 0.0000000000000000000 ) ) ;
#208 = DIRECTION ( 'NONE',  ( -1.000000000000000000, 0.0000000000000000000, 0.0000000000000000000 ) ) ;
#209 = VERTEX_POINT ( 'NONE', #410 ) ;
#210 = CARTESIAN_POINT ( 'NONE',  ( 0.0000000000000000000, 12.50019270498792200, 0.0000000000000000000 ) ) ;
#211 = CARTESIAN_POINT ( 'NONE',  ( 0.0000000000000000000, 12.50019270498792200, 4.000000000000000000 ) ) ;
#212 = EDGE_LOOP ( 'NONE', ( #198, #196, #132, #195 ) ) ;
#213 = CARTESIAN_POINT ( 'NONE',  ( 7.930062215757800500, 3.060083863917863600, 4.000000000000000000 ) ) ;
#214 = DIRECTION ( 'NONE',  ( 0.0000000000000000000, 0.0000000000000000000, 1.000000000000000000 ) ) ;
#215 = ADVANCED_FACE ( 'NONE', ( #118 ), #400, .F. ) ;
#216 = EDGE_LOOP ( 'NONE', ( #131 ) ) ;
#217 = ADVANCED_FACE ( 'NONE', ( #123, #124 ), #230, .F. ) ;
#218 = CARTESIAN_POINT ( 'NONE',  ( 7.930062215757800500, 3.060083863917863600, 4.000000000000000000 ) ) ;
#219 = DIRECTION ( 'NONE',  ( -0.0000000000000000000, -0.0000000000000000000, -1.000000000000000000 ) ) ;
#220 = VECTOR ( 'NONE', #399, 1000.000000000000000 ) ;
#221 = LINE ( 'NONE', #60, #260 ) ;
#222 = FACE_OUTER_BOUND ( 'NONE', #200, .T. ) ;
#223 = CYLINDRICAL_SURFACE ( 'NONE', #324, 8.499999999999998200 ) ;
#224 = FACE_OUTER_BOUND ( 'NONE', #115, .T. ) ;
#225 = UNCERTAINTY_MEASURE_WITH_UNIT (LENGTH_MEASURE( 1.000000000000000100E-005 ), #386, 'distance_accuracy_value', 'NONE');
#226 = CARTESIAN_POINT ( 'NONE',  ( 7.930062215757800500, 3.060083863917863600, 0.0000000000000000000 ) ) ;
#227 = CYLINDRICAL_SURFACE ( 'NONE', #325, 8.499999999999998200 ) ;
#228 = FACE_BOUND ( 'NONE', #152, .T. ) ;
#229 = CARTESIAN_POINT ( 'NONE',  ( 7.930062215757800500, 3.060083863917863600, 0.0000000000000000000 ) ) ;
#230 = CYLINDRICAL_SURFACE ( 'NONE', #326, 1.499995563816462600 ) ;
#231 = FACE_BOUND ( 'NONE', #216, .T. ) ;
#232 = DIRECTION ( 'NONE',  ( -0.0000000000000000000, -0.0000000000000000000, -1.000000000000000000 ) ) ;
#233 = LINE ( 'NONE', #284, #235 ) ;
#234 = FACE_OUTER_BOUND ( 'NONE', #212, .T. ) ;
#235 = VECTOR ( 'NONE', #403, 1000.000000000000000 ) ;
#236 = ADVANCED_FACE ( 'NONE', ( #110 ), #227, .T. ) ;
#237 = CYLINDRICAL_SURFACE ( 'NONE', #317, 3.999807295012080200 ) ;
#238 = FACE_OUTER_BOUND ( 'NONE', #108, .T. ) ;
#239 = CYLINDRICAL_SURFACE ( 'NONE', #316, 3.999807295012080200 ) ;
#240 = FACE_OUTER_BOUND ( 'NONE', #116, .T. ) ;
#241 = CARTESIAN_POINT ( 'NONE',  ( 0.0000000000000000000, 12.50019270498792200, 0.0000000000000000000 ) ) ;
#242 = FACE_BOUND ( 'NONE', #203, .T. ) ;
#243 = FACE_OUTER_BOUND ( 'NONE', #128, .T. ) ;
#244 = CIRCLE ( 'NONE', #314, 1.499995563816462600 ) ;
#245 = ADVANCED_FACE ( 'NONE', ( #65 ), #223, .T. ) ;
#246 = FACE_OUTER_BOUND ( 'NONE', #150, .T. ) ;
#247 = ADVANCED_FACE ( 'NONE', ( #228, #222, #120 ), #160, .F. ) ;
#248 = LINE ( 'NONE', #30, #73 ) ;
#249 = FACE_OUTER_BOUND ( 'NONE', #114, .T. ) ;
#250 = CIRCLE ( 'NONE', #310, 1.499995563816462800 ) ;
#251 = CYLINDRICAL_SURFACE ( 'NONE', #313, 1.499995563816462800 ) ;
#252 = ADVANCED_FACE ( 'NONE', ( #48 ), #253, .F. ) ;
#253 = PLANE ( 'NONE',  #322 ) ;
#254 =( GEOMETRIC_REPRESENTATION_CONTEXT ( 3 ) GLOBAL_UNCERTAINTY_ASSIGNED_CONTEXT ( ( #113 ) ) GLOBAL_UNIT_ASSIGNED_CONTEXT ( ( #352, #351, #350 ) ) REPRESENTATION_CONTEXT ( 'NONE', 'WORKASPACE' ) );
#255 = STYLED_ITEM ( 'NONE', ( #290 ), #283 ) ;
#256 = ADVANCED_FACE ( 'NONE', ( #234 ), #237, .T. ) ;
#257 = CARTESIAN_POINT ( 'NONE',  ( -3.731614200057378200, -13.94016279466408800, 4.000000000000000000 ) ) ;
#258 = EDGE_CURVE ( 'NONE', #202, #107, #233, .T. ) ;
#259 = ADVANCED_FACE ( 'NONE', ( #224 ), #239, .T. ) ;
#260 = VECTOR ( 'NONE', #130, 999.9999999999998900 ) ;
#261 = CARTESIAN_POINT ( 'NONE',  ( 0.0000000000000000000, 0.0000000000000000000, 4.000000000000000000 ) ) ;
#262 = ADVANCED_FACE ( 'NONE', ( #231, #238, #242 ), #71, .T. ) ;
#263 =( GEOMETRIC_REPRESENTATION_CONTEXT ( 3 ) GLOBAL_UNCERTAINTY_ASSIGNED_CONTEXT ( ( #52 ) ) GLOBAL_UNIT_ASSIGNED_CONTEXT ( ( #375, #374, #373 ) ) REPRESENTATION_CONTEXT ( 'NONE', 'WORKASPACE' ) );
#264 =( GEOMETRIC_REPRESENTATION_CONTEXT ( 3 ) GLOBAL_UNCERTAINTY_ASSIGNED_CONTEXT ( ( #225 ) ) GLOBAL_UNIT_ASSIGNED_CONTEXT ( ( #386, #385, #384 ) ) REPRESENTATION_CONTEXT ( 'NONE', 'WORKASPACE' ) );
#265 = DIRECTION ( 'NONE',  ( -1.000000000000000000, 0.0000000000000000000, 0.0000000000000000000 ) ) ;
#266 = ADVANCED_FACE ( 'NONE', ( #243, #246 ), #251, .F. ) ;
#267 = EDGE_CURVE ( 'NONE', #10, #10, #244, .T. ) ;
#268 = CARTESIAN_POINT ( 'NONE',  ( 0.0000000000000000000, 0.0000000000000000000, 0.0000000000000000000 ) ) ;
#269 = MECHANICAL_DESIGN_GEOMETRIC_PRESENTATION_REPRESENTATION (  '', ( #271 ), #264 ) ;
#270 = ADVANCED_FACE ( 'NONE', ( #249 ), #28, .F. ) ;
#271 = STYLED_ITEM ( 'NONE', ( #13 ), #401 ) ;
#272 = DIRECTION ( 'NONE',  ( -0.0000000000000000000, -0.0000000000000000000, -1.000000000000000000 ) ) ;
#273 = ADVANCED_FACE ( 'NONE', ( #240 ), #39, .F. ) ;
#274 = PRESENTATION_LAYER_ASSIGNMENT (  '', '', ( #271 ) ) ;
#275 = VECTOR ( 'NONE', #232, 1000.000000000000000 ) ;
#276 = DIRECTION ( 'NONE',  ( 0.9329484959715060900, -0.3600098663432780300, 0.0000000000000000000 ) ) ;
#277 = PRODUCT_DEFINITION_FORMATION_WITH_SPECIFIED_SOURCE ( 'ANY', '', #291, .NOT_KNOWN. ) ;
#278 = AXIS2_PLACEMENT_3D ( 'NONE', #17, #15, #5 ) ;
#279 = DIRECTION ( 'NONE',  ( -1.000000000000000000, 0.0000000000000000000, 0.0000000000000000000 ) ) ;
#280 = AXIS2_PLACEMENT_3D ( 'NONE', #36, #8, #12 ) ;
#281 = CARTESIAN_POINT ( 'NONE',  ( -7.930062215757800500, -3.060083863917863600, 4.000000000000000000 ) ) ;
#282 = AXIS2_PLACEMENT_3D ( 'NONE', #41, #51, #35 ) ;
#283 = ADVANCED_BREP_SHAPE_REPRESENTATION ( '1029-A2P-A', ( #401, #321 ), #263 ) ;
#284 = CARTESIAN_POINT ( 'NONE',  ( -7.930062215757800500, 3.060083863917863600, 4.000000000000000000 ) ) ;
#285 = EDGE_CURVE ( 'NONE', #56, #56, #250, .T. ) ;
#286 = PRESENTATION_LAYER_ASSIGNMENT (  '', '', ( #255 ) ) ;
#287 = DIRECTION ( 'NONE',  ( 0.0000000000000000000, 0.0000000000000000000, 1.000000000000000000 ) ) ;
#288 = AXIS2_PLACEMENT_3D ( 'NONE', #210, #295, #208 ) ;
#289 = PRODUCT_DEFINITION_SHAPE ( 'NONE', 'NONE',  #327 ) ;
#290 = PRESENTATION_STYLE_ASSIGNMENT (( #354 ) ) ;
#291 = PRODUCT ( '1029-A2P-A', '1029-A2P-A', '', ( #344 ) ) ;
#292 = AXIS2_PLACEMENT_3D ( 'NONE', #268, #287, #146 ) ;
#293 = CARTESIAN_POINT ( 'NONE',  ( -3.731614200057377300, 13.94016279466409000, 4.000000000000000000 ) ) ;
#294 = CARTESIAN_POINT ( 'NONE',  ( 7.930062215757800500, 3.060083863917863600, 4.000000000000000000 ) ) ;
#295 = DIRECTION ( 'NONE',  ( 0.0000000000000000000, 0.0000000000000000000, 1.000000000000000000 ) ) ;
#296 = DIRECTION ( 'NONE',  ( -0.0000000000000000000, -0.0000000000000000000, -1.000000000000000000 ) ) ;
#297 = CARTESIAN_POINT ( 'NONE',  ( 0.0000000000000000000, 0.0000000000000000000, 0.0000000000000000000 ) ) ;
#298 = COLOUR_RGB ( '',0.9019607843137255100, 0.8117647058823529400, 0.5725490196078431000 ) ;
#299 = DIRECTION ( 'NONE',  ( 1.000000000000000000, 0.0000000000000000000, 0.0000000000000000000 ) ) ;
#300 = VERTEX_POINT ( 'NONE', #381 ) ;
#301 = CARTESIAN_POINT ( 'NONE',  ( 3.731614200057377300, -13.94016279466409000, 0.0000000000000000000 ) ) ;
#302 = AXIS2_PLACEMENT_3D ( 'NONE', #365, #149, #383 ) ;
#303 = AXIS2_PLACEMENT_3D ( 'NONE', #355, #89, #405 ) ;
#304 = AXIS2_PLACEMENT_3D ( 'NONE', #211, #44, #336 ) ;
#305 = DIRECTION ( 'NONE',  ( 0.3600098663432780300, -0.9329484959715060900, -0.0000000000000000000 ) ) ;
#306 = AXIS2_PLACEMENT_3D ( 'NONE', #6, #408, #9 ) ;
#307 = CARTESIAN_POINT ( 'NONE',  ( 7.930062215757800500, -3.060083863917860900, 0.0000000000000000000 ) ) ;
#308 = AXIS2_PLACEMENT_3D ( 'NONE', #397, #104, #20 ) ;
#309 = AXIS2_PLACEMENT_3D ( 'NONE', #26, #23, #25 ) ;
#310 = AXIS2_PLACEMENT_3D ( 'NONE', #241, #67, #299 ) ;
#311 = AXIS2_PLACEMENT_3D ( 'NONE', #3, #85, #133 ) ;
#312 = DIRECTION ( 'NONE',  ( -0.3600098663432780300, 0.9329484959715060900, 0.0000000000000000000 ) ) ;
#313 = AXIS2_PLACEMENT_3D ( 'NONE', #158, #78, #207 ) ;
#314 = AXIS2_PLACEMENT_3D ( 'NONE', #43, #54, #353 ) ;
#315 = AXIS2_PLACEMENT_3D ( 'NONE', #34, #42, #72 ) ;
#316 = AXIS2_PLACEMENT_3D ( 'NONE', #47, #112, #57 ) ;
#317 = AXIS2_PLACEMENT_3D ( 'NONE', #29, #75, #121 ) ;
#318 = DIRECTION ( 'NONE',  ( -0.0000000000000000000, -0.0000000000000000000, -1.000000000000000000 ) ) ;
#319 = EDGE_CURVE ( 'NONE', #205, #193, #76, .T. ) ;
#320 = CARTESIAN_POINT ( 'NONE',  ( -7.930062215757800500, 3.060083863917863600, 0.0000000000000000000 ) ) ;
#321 = AXIS2_PLACEMENT_3D ( 'NONE', #21, #349, #347 ) ;
#322 = AXIS2_PLACEMENT_3D ( 'NONE', #213, #63, #33 ) ;
#323 = AXIS2_PLACEMENT_3D ( 'NONE', #297, #214, #168 ) ;
#324 = AXIS2_PLACEMENT_3D ( 'NONE', #261, #219, #265 ) ;
#325 = AXIS2_PLACEMENT_3D ( 'NONE', #377, #272, #279 ) ;
#326 = AXIS2_PLACEMENT_3D ( 'NONE', #140, #296, #334 ) ;
#327 = PRODUCT_DEFINITION ( 'UNKNOWN', '', #277, #179 ) ;
#328 = AXIS2_PLACEMENT_3D ( 'NONE', #346, #276, #122 ) ;
#329 = DIRECTION ( 'NONE',  ( -0.3600098663432780300, -0.9329484959715060900, -0.0000000000000000000 ) ) ;
#330 = MECHANICAL_DESIGN_GEOMETRIC_PRESENTATION_REPRESENTATION (  '', ( #255 ), #254 ) ;
#331 = EDGE_CURVE ( 'NONE', #201, #192, #70, .T. ) ;
#332 = EDGE_CURVE ( 'NONE', #135, #201, #248, .T. ) ;
#333 = EDGE_CURVE ( 'NONE', #300, #300, #80, .T. ) ;
#334 = DIRECTION ( 'NONE',  ( -1.000000000000000000, 0.0000000000000000000, 0.0000000000000000000 ) ) ;
#335 = EDGE_CURVE ( 'NONE', #202, #135, #79, .T. ) ;
#336 = DIRECTION ( 'NONE',  ( 1.000000000000000000, 0.0000000000000000000, 0.0000000000000000000 ) ) ;
#337 = EDGE_CURVE ( 'NONE', #204, #59, #74, .T. ) ;
#338 = EDGE_CURVE ( 'NONE', #59, #165, #68, .T. ) ;
#339 = CARTESIAN_POINT ( 'NONE',  ( 3.731614200057377800, 13.94016279466409000, 4.000000000000000000 ) ) ;
#340 = EDGE_CURVE ( 'NONE', #209, #202, #82, .T. ) ;
#341 = EDGE_CURVE ( 'NONE', #209, #97, #91, .T. ) ;
#342 = APPLICATION_CONTEXT ( 'automotive_design' ) ;
#343 = CARTESIAN_POINT ( 'NONE',  ( -7.930062215757800500, -3.060083863917863600, 0.0000000000000000000 ) ) ;
#344 = PRODUCT_CONTEXT ( 'NONE', #367, 'mechanical' ) ;
#345 = EDGE_CURVE ( 'NONE', #107, #105, #81, .T. ) ;
#346 = CARTESIAN_POINT ( 'NONE',  ( -7.930062215757800500, 3.060083863917863600, 4.000000000000000000 ) ) ;
#347 = DIRECTION ( 'NONE',  ( 1.000000000000000000, 0.0000000000000000000, 0.0000000000000000000 ) ) ;
#348 = EDGE_CURVE ( 'NONE', #97, #107, #14, .T. ) ;
#349 = DIRECTION ( 'NONE',  ( 0.0000000000000000000, 0.0000000000000000000, 1.000000000000000000 ) ) ;
#350 =( NAMED_UNIT ( * ) SI_UNIT ( $, .STERADIAN. ) SOLID_ANGLE_UNIT ( ) );
#351 =( NAMED_UNIT ( * ) PLANE_ANGLE_UNIT ( ) SI_UNIT ( $, .RADIAN. ) );
#352 =( LENGTH_UNIT ( ) NAMED_UNIT ( * ) SI_UNIT ( .MILLI., .METRE. ) );
#353 = DIRECTION ( 'NONE',  ( 1.000000000000000000, 0.0000000000000000000, 0.0000000000000000000 ) ) ;
#354 = SURFACE_STYLE_USAGE ( .BOTH. , #357 ) ;
#355 = CARTESIAN_POINT ( 'NONE',  ( 0.0000000000000000000, 0.0000000000000000000, 4.000000000000000000 ) ) ;
#356 = EDGE_CURVE ( 'NONE', #66, #97, #11, .T. ) ;
#357 = SURFACE_SIDE_STYLE ('',( #45 ) ) ;
#358 = EDGE_CURVE ( 'NONE', #59, #193, #24, .T. ) ;
#359 = EDGE_CURVE ( 'NONE', #193, #66, #87, .T. ) ;
#360 = CARTESIAN_POINT ( 'NONE',  ( -7.930062215757800500, 3.060083863917863600, 4.000000000000000000 ) ) ;
#361 = EDGE_CURVE ( 'NONE', #204, #205, #69, .T. ) ;
#362 = EDGE_CURVE ( 'NONE', #157, #205, #221, .T. ) ;
#363 = FILL_AREA_STYLE ('',( #378 ) ) ;
#364 = EDGE_CURVE ( 'NONE', #165, #209, #86, .T. ) ;
#365 = CARTESIAN_POINT ( 'NONE',  ( 0.0000000000000000000, 0.0000000000000000000, 4.000000000000000000 ) ) ;
#366 = EDGE_CURVE ( 'NONE', #55, #55, #37, .T. ) ;
#367 = APPLICATION_CONTEXT ( 'automotive_design' ) ;
#368 = EDGE_CURVE ( 'NONE', #192, #204, #61, .T. ) ;
#369 = EDGE_CURVE ( 'NONE', #98, #157, #62, .T. ) ;
#370 = PRODUCT_RELATED_PRODUCT_CATEGORY ( 'part', '', ( #291 ) ) ;
#371 = DIRECTION ( 'NONE',  ( -0.3600098663432780300, -0.9329484959715060900, -0.0000000000000000000 ) ) ;
#372 = APPLICATION_PROTOCOL_DEFINITION ( 'draft international standard', 'automotive_design', 1998, #367 ) ;
#373 =( NAMED_UNIT ( * ) SI_UNIT ( $, .STERADIAN. ) SOLID_ANGLE_UNIT ( ) );
#374 =( NAMED_UNIT ( * ) PLANE_ANGLE_UNIT ( ) SI_UNIT ( $, .RADIAN. ) );
#375 =( LENGTH_UNIT ( ) NAMED_UNIT ( * ) SI_UNIT ( .MILLI., .METRE. ) );
#376 = APPLICATION_PROTOCOL_DEFINITION ( 'draft international standard', 'automotive_design', 1998, #342 ) ;
#377 = CARTESIAN_POINT ( 'NONE',  ( 0.0000000000000000000, 0.0000000000000000000, 4.000000000000000000 ) ) ;
#378 = FILL_AREA_STYLE_COLOUR ( '', #298 ) ;
#379 = CARTESIAN_POINT ( 'NONE',  ( 1.499995563816462600, -12.50019270498792200, 0.0000000000000000000 ) ) ;
#380 = CARTESIAN_POINT ( 'NONE',  ( -3.731614200057377300, 13.94016279466409000, 0.0000000000000000000 ) ) ;
#381 = CARTESIAN_POINT ( 'NONE',  ( 1.499995563816462800, 12.50019270498792200, 4.000000000000000000 ) ) ;
#382 = CARTESIAN_POINT ( 'NONE',  ( 1.499995563816462800, 12.50019270498792200, 0.0000000000000000000 ) ) ;
#383 = DIRECTION ( 'NONE',  ( -1.000000000000000000, 0.0000000000000000000, 0.0000000000000000000 ) ) ;
#384 =( NAMED_UNIT ( * ) SI_UNIT ( $, .STERADIAN. ) SOLID_ANGLE_UNIT ( ) );
#385 =( NAMED_UNIT ( * ) PLANE_ANGLE_UNIT ( ) SI_UNIT ( $, .RADIAN. ) );
#386 =( LENGTH_UNIT ( ) NAMED_UNIT ( * ) SI_UNIT ( .MILLI., .METRE. ) );
#387 = EDGE_CURVE ( 'NONE', #201, #98, #7, .T. ) ;
#388 = EDGE_CURVE ( 'NONE', #105, #98, #32, .T. ) ;
#389 = EDGE_CURVE ( 'NONE', #165, #66, #90, .T. ) ;
#390 = SURFACE_STYLE_USAGE ( .BOTH. , #392 ) ;
#391 = EDGE_CURVE ( 'NONE', #192, #157, #95, .T. ) ;
#392 = SURFACE_SIDE_STYLE ('',( #94 ) ) ;
#393 = EDGE_CURVE ( 'NONE', #135, #105, #77, .T. ) ;
#394 = FILL_AREA_STYLE ('',( #407 ) ) ;
#395 = CARTESIAN_POINT ( 'NONE',  ( 1.499995563816462600, -12.50019270498792200, 4.000000000000000000 ) ) ;
#396 = DIRECTION ( 'NONE',  ( -0.0000000000000000000, -0.0000000000000000000, -1.000000000000000000 ) ) ;
#397 = CARTESIAN_POINT ( 'NONE',  ( 0.0000000000000000000, 0.0000000000000000000, 0.0000000000000000000 ) ) ;
#398 = CARTESIAN_POINT ( 'NONE',  ( -7.930062215757800500, -3.060083863917863600, 4.000000000000000000 ) ) ;
#399 = DIRECTION ( 'NONE',  ( -0.0000000000000000000, -0.0000000000000000000, -1.000000000000000000 ) ) ;
#400 = PLANE ( 'NONE',  #328 ) ;
#401 = MANIFOLD_SOLID_BREP ( 'Boss-Extrude1', #49 ) ;
#402 = CARTESIAN_POINT ( 'NONE',  ( 3.731614200057377300, -13.94016279466409000, 4.000000000000000000 ) ) ;
#403 = DIRECTION ( 'NONE',  ( -0.0000000000000000000, -0.0000000000000000000, -1.000000000000000000 ) ) ;
#404 = DIRECTION ( 'NONE',  ( -0.0000000000000000000, -0.0000000000000000000, -1.000000000000000000 ) ) ;
#405 = DIRECTION ( 'NONE',  ( 1.000000000000000000, 0.0000000000000000000, 0.0000000000000000000 ) ) ;
#406 = DIRECTION ( 'NONE',  ( 0.3600098663432780300, -0.9329484959715060900, -0.0000000000000000000 ) ) ;
#407 = FILL_AREA_STYLE_COLOUR ( '', #53 ) ;
#408 = DIRECTION ( 'NONE',  ( 0.0000000000000000000, 0.0000000000000000000, 1.000000000000000000 ) ) ;
#409 = CARTESIAN_POINT ( 'NONE',  ( -3.731614200057377300, -13.94016279466409000, 0.0000000000000000000 ) ) ;
#410 = CARTESIAN_POINT ( 'NONE',  ( -3.731614200057377300, 13.94016279466409000, 4.000000000000000000 ) ) ;
ENDSEC;
END-ISO-10303-21;
