ISO-10303-21;
HEADER;
FILE_DESCRIPTION (( 'STEP AP214' ),
    '1' );
FILE_NAME ('1057-A2P-A.STEP',
    '2013-05-15T14:42:00',
    ( '3DAssist' ),
    ( '' ),
    'SwSTEP 2.0',
    'SolidWorks 2013',
    '' );
FILE_SCHEMA (( 'AUTOMOTIVE_DESIGN' ));
ENDSEC;

DATA;
#1 = DIRECTION ( 'NONE',  ( 0.0000000000000000000, 1.000000000000000000, -0.0000000000000000000 ) ) ;
#2 = VECTOR ( 'NONE', #72, 1000.000000000000000 ) ;
#3 = CARTESIAN_POINT ( 'NONE',  ( 0.0000000000000000000, 3.000000000000000000, 18.00000000000000400 ) ) ;
#4 = CARTESIAN_POINT ( 'NONE',  ( 0.0000000000000000000, -3.000000000000000000, 18.00000000000000400 ) ) ;
#5 = VECTOR ( 'NONE', #213, 1000.000000000000000 ) ;
#6 = CIRCLE ( 'NONE', #84, 8.000000000000000000 ) ;
#7 = CIRCLE ( 'NONE', #90, 8.000000000000000000 ) ;
#8 = PRESENTATION_STYLE_ASSIGNMENT (( #163 ) ) ;
#9 = ORIENTED_EDGE ( 'NONE', *, *, #40, .F. ) ;
#10 = ORIENTED_EDGE ( 'NONE', *, *, #58, .T. ) ;
#11 = VERTEX_POINT ( 'NONE', #241 ) ;
#12 = AXIS2_PLACEMENT_3D ( 'NONE', #201, #185, #155 ) ;
#13 = LINE ( 'NONE', #259, #14 ) ;
#14 = VECTOR ( 'NONE', #244, 1000.000000000000000 ) ;
#15 = EDGE_CURVE ( 'NONE', #29, #21, #123, .T. ) ;
#16 = CYLINDRICAL_SURFACE ( 'NONE', #95, 8.000000000000000000 ) ;
#17 = FACE_OUTER_BOUND ( 'NONE', #68, .T. ) ;
#18 = CIRCLE ( 'NONE', #24, 8.000000000000000000 ) ;
#19 = DIRECTION ( 'NONE',  ( 0.0000000000000000000, 0.0000000000000000000, 1.000000000000000000 ) ) ;
#20 = ORIENTED_EDGE ( 'NONE', *, *, #63, .T. ) ;
#21 = VERTEX_POINT ( 'NONE', #243 ) ;
#22 = ORIENTED_EDGE ( 'NONE', *, *, #40, .T. ) ;
#23 = EDGE_LOOP ( 'NONE', ( #246 ) ) ;
#24 = AXIS2_PLACEMENT_3D ( 'NONE', #62, #51, #54 ) ;
#25 = EDGE_LOOP ( 'NONE', ( #157, #197, #9, #126 ) ) ;
#26 = ORIENTED_EDGE ( 'NONE', *, *, #66, .T. ) ;
#27 = EDGE_LOOP ( 'NONE', ( #34 ) ) ;
#28 = ORIENTED_EDGE ( 'NONE', *, *, #63, .F. ) ;
#29 = VERTEX_POINT ( 'NONE', #252 ) ;
#30 = EDGE_LOOP ( 'NONE', ( #169, #223, #44, #205 ) ) ;
#31 = ORIENTED_EDGE ( 'NONE', *, *, #55, .T. ) ;
#32 = PRODUCT_RELATED_PRODUCT_CATEGORY ( 'part', '', ( #253 ) ) ;
#33 = ORIENTED_EDGE ( 'NONE', *, *, #60, .T. ) ;
#34 = ORIENTED_EDGE ( 'NONE', *, *, #60, .F. ) ;
#35 = EDGE_LOOP ( 'NONE', ( #31, #172, #22, #20 ) ) ;
#36 = FACE_BOUND ( 'NONE', #176, .T. ) ;
#37 = FACE_BOUND ( 'NONE', #162, .T. ) ;
#38 = DIRECTION ( 'NONE',  ( 0.0000000000000000000, 1.000000000000000000, -0.0000000000000000000 ) ) ;
#39 = VECTOR ( 'NONE', #109, 1000.000000000000000 ) ;
#40 = EDGE_CURVE ( 'NONE', #11, #210, #93, .T. ) ;
#41 = CIRCLE ( 'NONE', #88, 1.500000000000001300 ) ;
#42 = EDGE_CURVE ( 'NONE', #266, #266, #119, .T. ) ;
#43 = EDGE_LOOP ( 'NONE', ( #211 ) ) ;
#44 = ORIENTED_EDGE ( 'NONE', *, *, #55, .F. ) ;
#45 = ORIENTED_EDGE ( 'NONE', *, *, #57, .F. ) ;
#46 = ORIENTED_EDGE ( 'NONE', *, *, #59, .F. ) ;
#47 = EDGE_LOOP ( 'NONE', ( #168, #161, #28, #26 ) ) ;
#48 = FACE_BOUND ( 'NONE', #132, .T. ) ;
#49 = SURFACE_STYLE_FILL_AREA ( #166 ) ;
#50 = UNCERTAINTY_MEASURE_WITH_UNIT (LENGTH_MEASURE( 1.000000000000000100E-005 ), #116, 'distance_accuracy_value', 'NONE');
#51 = DIRECTION ( 'NONE',  ( 0.0000000000000000000, 1.000000000000000000, -0.0000000000000000000 ) ) ;
#52 = ADVANCED_FACE ( 'NONE', ( #36, #37, #120 ), #216, .F. ) ;
#53 = EDGE_CURVE ( 'NONE', #21, #212, #145, .T. ) ;
#54 = DIRECTION ( 'NONE',  ( 0.0000000000000000000, 0.0000000000000000000, 1.000000000000000000 ) ) ;
#55 = EDGE_CURVE ( 'NONE', #29, #181, #144, .T. ) ;
#56 = EDGE_CURVE ( 'NONE', #11, #225, #148, .T. ) ;
#57 = EDGE_CURVE ( 'NONE', #181, #11, #18, .T. ) ;
#58 = EDGE_CURVE ( 'NONE', #212, #225, #7, .T. ) ;
#59 = EDGE_CURVE ( 'NONE', #153, #153, #41, .T. ) ;
#60 = EDGE_CURVE ( 'NONE', #262, #262, #78, .T. ) ;
#61 = EDGE_CURVE ( 'NONE', #226, #21, #6, .T. ) ;
#62 = CARTESIAN_POINT ( 'NONE',  ( 0.0000000000000000000, 3.000000000000000000, 18.00000000000000400 ) ) ;
#63 = EDGE_CURVE ( 'NONE', #210, #29, #106, .T. ) ;
#64 = EDGE_CURVE ( 'NONE', #150, #150, #214, .T. ) ;
#65 = EDGE_CURVE ( 'NONE', #225, #226, #170, .T. ) ;
#66 = EDGE_CURVE ( 'NONE', #210, #226, #13, .T. ) ;
#67 = COLOUR_RGB ( '',0.9019607843137255100, 0.8117647058823529400, 0.5725490196078431000 ) ;
#68 = EDGE_LOOP ( 'NONE', ( #159 ) ) ;
#69 = EDGE_CURVE ( 'NONE', #181, #212, #85, .T. ) ;
#70 = UNCERTAINTY_MEASURE_WITH_UNIT (LENGTH_MEASURE( 1.000000000000000100E-005 ), #158, 'distance_accuracy_value', 'NONE');
#71 = AXIS2_PLACEMENT_3D ( 'NONE', #237, #231, #230 ) ;
#72 = DIRECTION ( 'NONE',  ( -0.0000000000000000000, -1.000000000000000000, -0.0000000000000000000 ) ) ;
#73 = VECTOR ( 'NONE', #238, 1000.000000000000000 ) ;
#74 = FACE_BOUND ( 'NONE', #222, .T. ) ;
#75 = VECTOR ( 'NONE', #245, 1000.000000000000000 ) ;
#76 = FACE_OUTER_BOUND ( 'NONE', #35, .T. ) ;
#77 = FACE_OUTER_BOUND ( 'NONE', #25, .T. ) ;
#78 = CIRCLE ( 'NONE', #87, 1.500000000000001300 ) ;
#79 = CYLINDRICAL_SURFACE ( 'NONE', #96, 1.500000000000001300 ) ;
#80 = APPLICATION_PROTOCOL_DEFINITION ( 'draft international standard', 'automotive_design', 1998, #83 ) ;
#81 = AXIS2_PLACEMENT_3D ( 'NONE', #250, #249, #247 ) ;
#82 = AXIS2_PLACEMENT_3D ( 'NONE', #256, #255, #254 ) ;
#83 = APPLICATION_CONTEXT ( 'automotive_design' ) ;
#84 = AXIS2_PLACEMENT_3D ( 'NONE', #263, #261, #260 ) ;
#85 = LINE ( 'NONE', #242, #73 ) ;
#86 = CARTESIAN_POINT ( 'NONE',  ( 8.000000000000000000, 3.000000000000000000, 18.00000000000000400 ) ) ;
#87 = AXIS2_PLACEMENT_3D ( 'NONE', #269, #268, #267 ) ;
#88 = AXIS2_PLACEMENT_3D ( 'NONE', #3, #1, #270 ) ;
#89 = PRODUCT_CONTEXT ( 'NONE', #134, 'mechanical' ) ;
#90 = AXIS2_PLACEMENT_3D ( 'NONE', #4, #38, #19 ) ;
#91 = AXIS2_PLACEMENT_3D ( 'NONE', #240, #173, #146 ) ;
#92 = FACE_OUTER_BOUND ( 'NONE', #30, .T. ) ;
#93 = LINE ( 'NONE', #228, #149 ) ;
#94 = DIRECTION ( 'NONE',  ( 1.000000000000000000, 0.0000000000000000000, 0.0000000000000000000 ) ) ;
#95 = AXIS2_PLACEMENT_3D ( 'NONE', #183, #182, #186 ) ;
#96 = AXIS2_PLACEMENT_3D ( 'NONE', #177, #175, #178 ) ;
#97 = STYLED_ITEM ( 'NONE', ( #8 ), #273 ) ;
#98 = PRESENTATION_LAYER_ASSIGNMENT (  '', '', ( #97 ) ) ;
#99 = MECHANICAL_DESIGN_GEOMETRIC_PRESENTATION_REPRESENTATION (  '', ( #97 ), #101 ) ;
#100 = DIRECTION ( 'NONE',  ( 0.0000000000000000000, 0.0000000000000000000, 1.000000000000000000 ) ) ;
#101 =( GEOMETRIC_REPRESENTATION_CONTEXT ( 3 ) GLOBAL_UNCERTAINTY_ASSIGNED_CONTEXT ( ( #70 ) ) GLOBAL_UNIT_ASSIGNED_CONTEXT ( ( #158, #156, #151 ) ) REPRESENTATION_CONTEXT ( 'NONE', 'WORKASPACE' ) );
#102 = STYLED_ITEM ( 'NONE', ( #274 ), #129 ) ;
#103 = PRESENTATION_LAYER_ASSIGNMENT (  '', '', ( #102 ) ) ;
#104 = MECHANICAL_DESIGN_GEOMETRIC_PRESENTATION_REPRESENTATION (  '', ( #102 ), #107 ) ;
#105 = DIRECTION ( 'NONE',  ( 0.0000000000000000000, 0.0000000000000000000, 1.000000000000000000 ) ) ;
#106 = CIRCLE ( 'NONE', #82, 8.000000000000000000 ) ;
#107 =( GEOMETRIC_REPRESENTATION_CONTEXT ( 3 ) GLOBAL_UNCERTAINTY_ASSIGNED_CONTEXT ( ( #50 ) ) GLOBAL_UNIT_ASSIGNED_CONTEXT ( ( #116, #114, #108 ) ) REPRESENTATION_CONTEXT ( 'NONE', 'WORKASPACE' ) );
#108 =( NAMED_UNIT ( * ) SI_UNIT ( $, .STERADIAN. ) SOLID_ANGLE_UNIT ( ) );
#109 = DIRECTION ( 'NONE',  ( 0.0000000000000000000, 0.0000000000000000000, 1.000000000000000000 ) ) ;
#110 = AXIS2_PLACEMENT_3D ( 'NONE', #180, #100, #94 ) ;
#111 = ADVANCED_FACE ( 'NONE', ( #77 ), #239, .F. ) ;
#112 = PRODUCT_DEFINITION ( 'UNKNOWN', '', #113, #135 ) ;
#113 = PRODUCT_DEFINITION_FORMATION_WITH_SPECIFIED_SOURCE ( 'ANY', '', #253, .NOT_KNOWN. ) ;
#114 =( NAMED_UNIT ( * ) PLANE_ANGLE_UNIT ( ) SI_UNIT ( $, .RADIAN. ) );
#115 = AXIS2_PLACEMENT_3D ( 'NONE', #217, #235, #207 ) ;
#116 =( LENGTH_UNIT ( ) NAMED_UNIT ( * ) SI_UNIT ( .MILLI., .METRE. ) );
#117 = AXIS2_PLACEMENT_3D ( 'NONE', #206, #208, #199 ) ;
#118 = CARTESIAN_POINT ( 'NONE',  ( -8.000000000000000000, -3.000000000000000000, 0.0000000000000000000 ) ) ;
#119 = CIRCLE ( 'NONE', #12, 1.500000000000001300 ) ;
#120 = FACE_OUTER_BOUND ( 'NONE', #140, .T. ) ;
#121 = AXIS2_PLACEMENT_3D ( 'NONE', #192, #184, #196 ) ;
#122 = SURFACE_STYLE_USAGE ( .BOTH. , #127 ) ;
#123 = LINE ( 'NONE', #251, #5 ) ;
#124 =( GEOMETRIC_REPRESENTATION_CONTEXT ( 3 ) GLOBAL_UNCERTAINTY_ASSIGNED_CONTEXT ( ( #257 ) ) GLOBAL_UNIT_ASSIGNED_CONTEXT ( ( #139, #138, #137 ) ) REPRESENTATION_CONTEXT ( 'NONE', 'WORKASPACE' ) );
#125 = ORIENTED_EDGE ( 'NONE', *, *, #58, .F. ) ;
#126 = ORIENTED_EDGE ( 'NONE', *, *, #56, .T. ) ;
#127 = SURFACE_SIDE_STYLE ('',( #154 ) ) ;
#128 = AXIS2_PLACEMENT_3D ( 'NONE', #202, #195, #194 ) ;
#129 = ADVANCED_BREP_SHAPE_REPRESENTATION ( '1057-A2P-A', ( #273, #110 ), #124 ) ;
#130 = FILL_AREA_STYLE ('',( #141 ) ) ;
#131 = VECTOR ( 'NONE', #105, 1000.000000000000000 ) ;
#132 = EDGE_LOOP ( 'NONE', ( #160 ) ) ;
#133 = ORIENTED_EDGE ( 'NONE', *, *, #56, .F. ) ;
#134 = APPLICATION_CONTEXT ( 'automotive_design' ) ;
#135 = PRODUCT_DEFINITION_CONTEXT ( 'detailed design', #83, 'design' ) ;
#136 = APPLICATION_PROTOCOL_DEFINITION ( 'draft international standard', 'automotive_design', 1998, #134 ) ;
#137 =( NAMED_UNIT ( * ) SI_UNIT ( $, .STERADIAN. ) SOLID_ANGLE_UNIT ( ) );
#138 =( NAMED_UNIT ( * ) PLANE_ANGLE_UNIT ( ) SI_UNIT ( $, .RADIAN. ) );
#139 =( LENGTH_UNIT ( ) NAMED_UNIT ( * ) SI_UNIT ( .MILLI., .METRE. ) );
#140 = EDGE_LOOP ( 'NONE', ( #179, #227, #167, #125 ) ) ;
#141 = FILL_AREA_STYLE_COLOUR ( '', #271 ) ;
#142 = CARTESIAN_POINT ( 'NONE',  ( 0.0000000000000000000, -3.000000000000000000, -16.50000000000000000 ) ) ;
#143 = CARTESIAN_POINT ( 'NONE',  ( 0.0000000000000000000, -3.000000000000000000, 19.50000000000000400 ) ) ;
#144 = LINE ( 'NONE', #209, #131 ) ;
#145 = LINE ( 'NONE', #118, #39 ) ;
#146 = DIRECTION ( 'NONE',  ( 0.0000000000000000000, 0.0000000000000000000, 1.000000000000000000 ) ) ;
#147 = CARTESIAN_POINT ( 'NONE',  ( 0.0000000000000000000, 3.000000000000000000, 19.50000000000000400 ) ) ;
#148 = LINE ( 'NONE', #86, #2 ) ;
#149 = VECTOR ( 'NONE', #272, 1000.000000000000000 ) ;
#150 = VERTEX_POINT ( 'NONE', #142 ) ;
#151 =( NAMED_UNIT ( * ) SI_UNIT ( $, .STERADIAN. ) SOLID_ANGLE_UNIT ( ) );
#152 = SHAPE_DEFINITION_REPRESENTATION ( #200, #129 ) ;
#153 = VERTEX_POINT ( 'NONE', #147 ) ;
#154 = SURFACE_STYLE_FILL_AREA ( #130 ) ;
#155 = DIRECTION ( 'NONE',  ( 0.0000000000000000000, 0.0000000000000000000, 1.000000000000000000 ) ) ;
#156 =( NAMED_UNIT ( * ) PLANE_ANGLE_UNIT ( ) SI_UNIT ( $, .RADIAN. ) );
#157 = ORIENTED_EDGE ( 'NONE', *, *, #65, .T. ) ;
#158 =( LENGTH_UNIT ( ) NAMED_UNIT ( * ) SI_UNIT ( .MILLI., .METRE. ) );
#159 = ORIENTED_EDGE ( 'NONE', *, *, #59, .T. ) ;
#160 = ORIENTED_EDGE ( 'NONE', *, *, #42, .F. ) ;
#161 = ORIENTED_EDGE ( 'NONE', *, *, #15, .F. ) ;
#162 = EDGE_LOOP ( 'NONE', ( #218 ) ) ;
#163 = SURFACE_STYLE_USAGE ( .BOTH. , #165 ) ;
#164 = ADVANCED_FACE ( 'NONE', ( #74, #48, #76 ), #221, .T. ) ;
#165 = SURFACE_SIDE_STYLE ('',( #49 ) ) ;
#166 = FILL_AREA_STYLE ('',( #171 ) ) ;
#167 = ORIENTED_EDGE ( 'NONE', *, *, #65, .F. ) ;
#168 = ORIENTED_EDGE ( 'NONE', *, *, #61, .T. ) ;
#169 = ORIENTED_EDGE ( 'NONE', *, *, #53, .T. ) ;
#170 = LINE ( 'NONE', #258, #75 ) ;
#171 = FILL_AREA_STYLE_COLOUR ( '', #67 ) ;
#172 = ORIENTED_EDGE ( 'NONE', *, *, #57, .T. ) ;
#173 = DIRECTION ( 'NONE',  ( 0.0000000000000000000, 1.000000000000000000, -0.0000000000000000000 ) ) ;
#174 = CARTESIAN_POINT ( 'NONE',  ( 0.0000000000000000000, 3.000000000000000000, -16.50000000000000000 ) ) ;
#175 = DIRECTION ( 'NONE',  ( -0.0000000000000000000, -1.000000000000000000, -0.0000000000000000000 ) ) ;
#176 = EDGE_LOOP ( 'NONE', ( #33 ) ) ;
#177 = CARTESIAN_POINT ( 'NONE',  ( 0.0000000000000000000, 3.000000000000000000, 18.00000000000000400 ) ) ;
#178 = DIRECTION ( 'NONE',  ( 0.0000000000000000000, 0.0000000000000000000, -1.000000000000000000 ) ) ;
#179 = ORIENTED_EDGE ( 'NONE', *, *, #53, .F. ) ;
#180 = CARTESIAN_POINT ( 'NONE',  ( 0.0000000000000000000, 0.0000000000000000000, 0.0000000000000000000 ) ) ;
#181 = VERTEX_POINT ( 'NONE', #203 ) ;
#182 = DIRECTION ( 'NONE',  ( -0.0000000000000000000, -1.000000000000000000, -0.0000000000000000000 ) ) ;
#183 = CARTESIAN_POINT ( 'NONE',  ( 0.0000000000000000000, 3.000000000000000000, 18.00000000000000400 ) ) ;
#184 = DIRECTION ( 'NONE',  ( -0.0000000000000000000, -1.000000000000000000, -0.0000000000000000000 ) ) ;
#185 = DIRECTION ( 'NONE',  ( 0.0000000000000000000, 1.000000000000000000, -0.0000000000000000000 ) ) ;
#186 = DIRECTION ( 'NONE',  ( 0.0000000000000000000, 0.0000000000000000000, -1.000000000000000000 ) ) ;
#187 = ADVANCED_FACE ( 'NONE', ( #233 ), #236, .T. ) ;
#188 = CARTESIAN_POINT ( 'NONE',  ( 8.000000000000000000, -3.000000000000000000, -18.00000000000000400 ) ) ;
#189 = ADVANCED_FACE ( 'NONE', ( #92 ), #198, .F. ) ;
#190 = CARTESIAN_POINT ( 'NONE',  ( 8.000000000000000000, -3.000000000000000000, 18.00000000000000400 ) ) ;
#191 = CARTESIAN_POINT ( 'NONE',  ( 8.000000000000000000, 3.000000000000000000, -18.00000000000000400 ) ) ;
#192 = CARTESIAN_POINT ( 'NONE',  ( 0.0000000000000000000, 3.000000000000000000, -18.00000000000000400 ) ) ;
#193 = CARTESIAN_POINT ( 'NONE',  ( -8.000000000000000000, -3.000000000000000000, 18.00000000000000400 ) ) ;
#194 = DIRECTION ( 'NONE',  ( 0.0000000000000000000, 0.0000000000000000000, -1.000000000000000000 ) ) ;
#195 = DIRECTION ( 'NONE',  ( 1.000000000000000000, 0.0000000000000000000, 0.0000000000000000000 ) ) ;
#196 = DIRECTION ( 'NONE',  ( 0.0000000000000000000, 0.0000000000000000000, -1.000000000000000000 ) ) ;
#197 = ORIENTED_EDGE ( 'NONE', *, *, #66, .F. ) ;
#198 = PLANE ( 'NONE',  #128 ) ;
#199 = DIRECTION ( 'NONE',  ( 0.0000000000000000000, 0.0000000000000000000, -1.000000000000000000 ) ) ;
#200 = PRODUCT_DEFINITION_SHAPE ( 'NONE', 'NONE',  #112 ) ;
#201 = CARTESIAN_POINT ( 'NONE',  ( 0.0000000000000000000, 3.000000000000000000, -18.00000000000000400 ) ) ;
#202 = CARTESIAN_POINT ( 'NONE',  ( -8.000000000000000000, 3.000000000000000000, 0.0000000000000000000 ) ) ;
#203 = CARTESIAN_POINT ( 'NONE',  ( -8.000000000000000000, 3.000000000000000000, 18.00000000000000400 ) ) ;
#204 = FACE_OUTER_BOUND ( 'NONE', #215, .T. ) ;
#205 = ORIENTED_EDGE ( 'NONE', *, *, #15, .T. ) ;
#206 = CARTESIAN_POINT ( 'NONE',  ( 0.0000000000000000000, 3.000000000000000000, -18.00000000000000400 ) ) ;
#207 = DIRECTION ( 'NONE',  ( 0.0000000000000000000, 0.0000000000000000000, 1.000000000000000000 ) ) ;
#208 = DIRECTION ( 'NONE',  ( -0.0000000000000000000, -1.000000000000000000, -0.0000000000000000000 ) ) ;
#209 = CARTESIAN_POINT ( 'NONE',  ( -8.000000000000000000, 3.000000000000000000, 0.0000000000000000000 ) ) ;
#210 = VERTEX_POINT ( 'NONE', #191 ) ;
#211 = ORIENTED_EDGE ( 'NONE', *, *, #64, .F. ) ;
#212 = VERTEX_POINT ( 'NONE', #193 ) ;
#213 = DIRECTION ( 'NONE',  ( -0.0000000000000000000, -1.000000000000000000, -0.0000000000000000000 ) ) ;
#214 = CIRCLE ( 'NONE', #81, 1.500000000000001300 ) ;
#215 = EDGE_LOOP ( 'NONE', ( #10, #133, #45, #219 ) ) ;
#216 = PLANE ( 'NONE',  #91 ) ;
#217 = CARTESIAN_POINT ( 'NONE',  ( 0.0000000000000000000, 3.000000000000000000, 0.0000000000000000000 ) ) ;
#218 = ORIENTED_EDGE ( 'NONE', *, *, #64, .T. ) ;
#219 = ORIENTED_EDGE ( 'NONE', *, *, #69, .T. ) ;
#220 = FACE_OUTER_BOUND ( 'NONE', #27, .T. ) ;
#221 = PLANE ( 'NONE',  #115 ) ;
#222 = EDGE_LOOP ( 'NONE', ( #46 ) ) ;
#223 = ORIENTED_EDGE ( 'NONE', *, *, #69, .F. ) ;
#224 = CLOSED_SHELL ( 'NONE', ( #189, #264, #111, #248, #265, #187, #164, #52 ) ) ;
#225 = VERTEX_POINT ( 'NONE', #190 ) ;
#226 = VERTEX_POINT ( 'NONE', #188 ) ;
#227 = ORIENTED_EDGE ( 'NONE', *, *, #61, .F. ) ;
#228 = CARTESIAN_POINT ( 'NONE',  ( 8.000000000000000000, 3.000000000000000000, 0.0000000000000000000 ) ) ;
#229 = FACE_OUTER_BOUND ( 'NONE', #43, .T. ) ;
#230 = DIRECTION ( 'NONE',  ( 0.0000000000000000000, 0.0000000000000000000, 1.000000000000000000 ) ) ;
#231 = DIRECTION ( 'NONE',  ( -1.000000000000000000, 0.0000000000000000000, 0.0000000000000000000 ) ) ;
#232 = CYLINDRICAL_SURFACE ( 'NONE', #121, 1.500000000000001300 ) ;
#233 = FACE_OUTER_BOUND ( 'NONE', #47, .T. ) ;
#234 = FACE_OUTER_BOUND ( 'NONE', #23, .T. ) ;
#235 = DIRECTION ( 'NONE',  ( 0.0000000000000000000, 1.000000000000000000, -0.0000000000000000000 ) ) ;
#236 = CYLINDRICAL_SURFACE ( 'NONE', #117, 8.000000000000000000 ) ;
#237 = CARTESIAN_POINT ( 'NONE',  ( 8.000000000000000000, 3.000000000000000000, 0.0000000000000000000 ) ) ;
#238 = DIRECTION ( 'NONE',  ( -0.0000000000000000000, -1.000000000000000000, -0.0000000000000000000 ) ) ;
#239 = PLANE ( 'NONE',  #71 ) ;
#240 = CARTESIAN_POINT ( 'NONE',  ( 0.0000000000000000000, -3.000000000000000000, 0.0000000000000000000 ) ) ;
#241 = CARTESIAN_POINT ( 'NONE',  ( 8.000000000000000000, 3.000000000000000000, 18.00000000000000400 ) ) ;
#242 = CARTESIAN_POINT ( 'NONE',  ( -8.000000000000000000, 3.000000000000000000, 18.00000000000000400 ) ) ;
#243 = CARTESIAN_POINT ( 'NONE',  ( -8.000000000000000000, -3.000000000000000000, -18.00000000000000400 ) ) ;
#244 = DIRECTION ( 'NONE',  ( -0.0000000000000000000, -1.000000000000000000, -0.0000000000000000000 ) ) ;
#245 = DIRECTION ( 'NONE',  ( 0.0000000000000000000, 0.0000000000000000000, -1.000000000000000000 ) ) ;
#246 = ORIENTED_EDGE ( 'NONE', *, *, #42, .T. ) ;
#247 = DIRECTION ( 'NONE',  ( 0.0000000000000000000, 0.0000000000000000000, 1.000000000000000000 ) ) ;
#248 = ADVANCED_FACE ( 'NONE', ( #234, #229 ), #232, .F. ) ;
#249 = DIRECTION ( 'NONE',  ( 0.0000000000000000000, 1.000000000000000000, -0.0000000000000000000 ) ) ;
#250 = CARTESIAN_POINT ( 'NONE',  ( 0.0000000000000000000, -3.000000000000000000, -18.00000000000000400 ) ) ;
#251 = CARTESIAN_POINT ( 'NONE',  ( -8.000000000000000000, 3.000000000000000000, -18.00000000000000400 ) ) ;
#252 = CARTESIAN_POINT ( 'NONE',  ( -8.000000000000000000, 3.000000000000000000, -18.00000000000000400 ) ) ;
#253 = PRODUCT ( '1057-A2P-A', '1057-A2P-A', '', ( #89 ) ) ;
#254 = DIRECTION ( 'NONE',  ( 0.0000000000000000000, 0.0000000000000000000, 1.000000000000000000 ) ) ;
#255 = DIRECTION ( 'NONE',  ( 0.0000000000000000000, 1.000000000000000000, -0.0000000000000000000 ) ) ;
#256 = CARTESIAN_POINT ( 'NONE',  ( 0.0000000000000000000, 3.000000000000000000, -18.00000000000000400 ) ) ;
#257 = UNCERTAINTY_MEASURE_WITH_UNIT (LENGTH_MEASURE( 1.000000000000000100E-005 ), #139, 'distance_accuracy_value', 'NONE');
#258 = CARTESIAN_POINT ( 'NONE',  ( 8.000000000000000000, -3.000000000000000000, 0.0000000000000000000 ) ) ;
#259 = CARTESIAN_POINT ( 'NONE',  ( 8.000000000000000000, 3.000000000000000000, -18.00000000000000400 ) ) ;
#260 = DIRECTION ( 'NONE',  ( 0.0000000000000000000, 0.0000000000000000000, 1.000000000000000000 ) ) ;
#261 = DIRECTION ( 'NONE',  ( 0.0000000000000000000, 1.000000000000000000, -0.0000000000000000000 ) ) ;
#262 = VERTEX_POINT ( 'NONE', #143 ) ;
#263 = CARTESIAN_POINT ( 'NONE',  ( 0.0000000000000000000, -3.000000000000000000, -18.00000000000000400 ) ) ;
#264 = ADVANCED_FACE ( 'NONE', ( #204 ), #16, .T. ) ;
#265 = ADVANCED_FACE ( 'NONE', ( #17, #220 ), #79, .F. ) ;
#266 = VERTEX_POINT ( 'NONE', #174 ) ;
#267 = DIRECTION ( 'NONE',  ( 0.0000000000000000000, 0.0000000000000000000, 1.000000000000000000 ) ) ;
#268 = DIRECTION ( 'NONE',  ( 0.0000000000000000000, 1.000000000000000000, -0.0000000000000000000 ) ) ;
#269 = CARTESIAN_POINT ( 'NONE',  ( 0.0000000000000000000, -3.000000000000000000, 18.00000000000000400 ) ) ;
#270 = DIRECTION ( 'NONE',  ( 0.0000000000000000000, 0.0000000000000000000, 1.000000000000000000 ) ) ;
#271 = COLOUR_RGB ( '',0.9019607843137255100, 0.8117647058823529400, 0.5725490196078431000 ) ;
#272 = DIRECTION ( 'NONE',  ( 0.0000000000000000000, 0.0000000000000000000, -1.000000000000000000 ) ) ;
#273 = MANIFOLD_SOLID_BREP ( 'Boss-Extrude1', #224 ) ;
#274 = PRESENTATION_STYLE_ASSIGNMENT (( #122 ) ) ;
ENDSEC;
END-ISO-10303-21;
