ISO-10303-21;
HEADER;
FILE_DESCRIPTION (( 'STEP AP214' ),
    '1' );
FILE_NAME ('1028-A2P-A.STEP',
    '2013-05-15T14:38:40',
    ( '3DAssist' ),
    ( '' ),
    'SwSTEP 2.0',
    'SolidWorks 2013',
    '' );
FILE_SCHEMA (( 'AUTOMOTIVE_DESIGN' ));
ENDSEC;

DATA;
#1 = ORIENTED_EDGE ( 'NONE', *, *, #32, .F. ) ;
#2 = PRESENTATION_LAYER_ASSIGNMENT (  '', '', ( #4 ) ) ;
#3 = ADVANCED_FACE ( 'NONE', ( #92 ), #124, .F. ) ;
#4 = STYLED_ITEM ( 'NONE', ( #68 ), #53 ) ;
#5 = DIRECTION ( 'NONE',  ( 0.0000000000000000000, 0.0000000000000000000, 1.000000000000000000 ) ) ;
#6 = SURFACE_SIDE_STYLE ('',( #69 ) ) ;
#7 = AXIS2_PLACEMENT_3D ( 'NONE', #126, #131, #36 ) ;
#8 = DIRECTION ( 'NONE',  ( -0.0000000000000000000, -1.000000000000000000, -0.0000000000000000000 ) ) ;
#9 = APPLICATION_PROTOCOL_DEFINITION ( 'draft international standard', 'automotive_design', 1998, #23 ) ;
#10 = APPLICATION_CONTEXT ( 'automotive_design' ) ;
#11 = AXIS2_PLACEMENT_3D ( 'NONE', #125, #20, #114 ) ;
#12 = AXIS2_PLACEMENT_3D ( 'NONE', #100, #26, #116 ) ;
#13 = ORIENTED_EDGE ( 'NONE', *, *, #35, .T. ) ;
#14 = UNCERTAINTY_MEASURE_WITH_UNIT (LENGTH_MEASURE( 1.000000000000000100E-005 ), #134, 'distance_accuracy_value', 'NONE');
#15 = MECHANICAL_DESIGN_GEOMETRIC_PRESENTATION_REPRESENTATION (  '', ( #4 ), #55 ) ;
#16 = AXIS2_PLACEMENT_3D ( 'NONE', #136, #56, #5 ) ;
#17 = COLOUR_RGB ( '',0.7529411764705882200, 0.7529411764705882200, 0.7529411764705882200 ) ;
#18 = DIRECTION ( 'NONE',  ( 0.0000000000000000000, 1.000000000000000000, 0.0000000000000000000 ) ) ;
#19 = AXIS2_PLACEMENT_3D ( 'NONE', #34, #45, #49 ) ;
#20 = DIRECTION ( 'NONE',  ( 0.0000000000000000000, -1.000000000000000000, 0.0000000000000000000 ) ) ;
#21 =( LENGTH_UNIT ( ) NAMED_UNIT ( * ) SI_UNIT ( .MILLI., .METRE. ) );
#22 = CARTESIAN_POINT ( 'NONE',  ( 0.0000000000000000000, 0.0000000000000000000, 0.0000000000000000000 ) ) ;
#23 = APPLICATION_CONTEXT ( 'automotive_design' ) ;
#24 = AXIS2_PLACEMENT_3D ( 'NONE', #112, #33, #44 ) ;
#25 = AXIS2_PLACEMENT_3D ( 'NONE', #82, #18, #99 ) ;
#26 = DIRECTION ( 'NONE',  ( -0.0000000000000000000, 1.000000000000000000, -0.0000000000000000000 ) ) ;
#27 =( NAMED_UNIT ( * ) SI_UNIT ( $, .STERADIAN. ) SOLID_ANGLE_UNIT ( ) );
#28 = EDGE_CURVE ( 'NONE', #66, #66, #79, .T. ) ;
#29 = SURFACE_SIDE_STYLE ('',( #74 ) ) ;
#30 = ORIENTED_EDGE ( 'NONE', *, *, #32, .T. ) ;
#31 = EDGE_CURVE ( 'NONE', #63, #63, #81, .T. ) ;
#32 = EDGE_CURVE ( 'NONE', #62, #62, #104, .T. ) ;
#33 = DIRECTION ( 'NONE',  ( 0.0000000000000000000, 1.000000000000000000, 0.0000000000000000000 ) ) ;
#34 = CARTESIAN_POINT ( 'NONE',  ( 0.0000000000000000000, 0.0000000000000000000, 0.0000000000000000000 ) ) ;
#35 = EDGE_CURVE ( 'NONE', #61, #61, #54, .T. ) ;
#36 = DIRECTION ( 'NONE',  ( 0.0000000000000000000, 0.0000000000000000000, 1.000000000000000000 ) ) ;
#37 = UNCERTAINTY_MEASURE_WITH_UNIT (LENGTH_MEASURE( 1.000000000000000100E-005 ), #21, 'distance_accuracy_value', 'NONE');
#38 = PLANE ( 'NONE',  #113 ) ;
#39 = FILL_AREA_STYLE_COLOUR ( '', #17 ) ;
#40 =( LENGTH_UNIT ( ) NAMED_UNIT ( * ) SI_UNIT ( .MILLI., .METRE. ) );
#41 = EDGE_LOOP ( 'NONE', ( #96 ) ) ;
#42 = PRODUCT_DEFINITION_CONTEXT ( 'detailed design', #10, 'design' ) ;
#43 = ADVANCED_FACE ( 'NONE', ( #78, #75 ), #72, .T. ) ;
#44 = DIRECTION ( 'NONE',  ( 0.0000000000000000000, -0.0000000000000000000, 1.000000000000000000 ) ) ;
#45 = DIRECTION ( 'NONE',  ( -0.0000000000000000000, -1.000000000000000000, -0.0000000000000000000 ) ) ;
#46 = CARTESIAN_POINT ( 'NONE',  ( 0.0000000000000000000, 339.0000000000000000, 0.0000000000000000000 ) ) ;
#47 =( NAMED_UNIT ( * ) SI_UNIT ( $, .STERADIAN. ) SOLID_ANGLE_UNIT ( ) );
#48 = ADVANCED_FACE ( 'NONE', ( #80, #77 ), #70, .T. ) ;
#49 = DIRECTION ( 'NONE',  ( 0.0000000000000000000, 0.0000000000000000000, 1.000000000000000000 ) ) ;
#50 = DIRECTION ( 'NONE',  ( 0.0000000000000000000, -0.0000000000000000000, 1.000000000000000000 ) ) ;
#51 =( NAMED_UNIT ( * ) PLANE_ANGLE_UNIT ( ) SI_UNIT ( $, .RADIAN. ) );
#52 = DIRECTION ( 'NONE',  ( 0.0000000000000000000, 0.0000000000000000000, 1.000000000000000000 ) ) ;
#53 = MANIFOLD_SOLID_BREP ( 'Chamfer1', #94 ) ;
#54 = CIRCLE ( 'NONE', #12, 5.999999999999998200 ) ;
#55 =( GEOMETRIC_REPRESENTATION_CONTEXT ( 3 ) GLOBAL_UNCERTAINTY_ASSIGNED_CONTEXT ( ( #37 ) ) GLOBAL_UNIT_ASSIGNED_CONTEXT ( ( #21, #101, #27 ) ) REPRESENTATION_CONTEXT ( 'NONE', 'WORKASPACE' ) );
#56 = DIRECTION ( 'NONE',  ( 0.0000000000000000000, -1.000000000000000000, 0.0000000000000000000 ) ) ;
#57 = PRESENTATION_STYLE_ASSIGNMENT (( #121 ) ) ;
#58 = FILL_AREA_STYLE ('',( #137 ) ) ;
#59 = CARTESIAN_POINT ( 'NONE',  ( 0.0000000000000000000, 339.0000000000000000, 0.0000000000000000000 ) ) ;
#60 = PRODUCT_CONTEXT ( 'NONE', #23, 'mechanical' ) ;
#61 = VERTEX_POINT ( 'NONE', #120 ) ;
#62 = VERTEX_POINT ( 'NONE', #88 ) ;
#63 = VERTEX_POINT ( 'NONE', #102 ) ;
#64 = SHAPE_DEFINITION_REPRESENTATION ( #130, #135 ) ;
#65 = CYLINDRICAL_SURFACE ( 'NONE', #111, 5.999999999999998200 ) ;
#66 = VERTEX_POINT ( 'NONE', #127 ) ;
#67 = PRODUCT ( '1028-A2P-A', '1028-A2P-A', '', ( #60 ) ) ;
#68 = PRESENTATION_STYLE_ASSIGNMENT (( #84 ) ) ;
#69 = SURFACE_STYLE_FILL_AREA ( #58 ) ;
#70 = CONICAL_SURFACE ( 'NONE', #7, 5.999999999999998200, 0.7853981633974412800 ) ;
#71 = FACE_OUTER_BOUND ( 'NONE', #89, .T. ) ;
#72 = CONICAL_SURFACE ( 'NONE', #11, 5.499999999999976900, 0.7853981633974691500 ) ;
#73 = COLOUR_RGB ( '',0.7529411764705882200, 0.7529411764705882200, 0.7529411764705882200 ) ;
#74 = SURFACE_STYLE_FILL_AREA ( #103 ) ;
#75 = FACE_BOUND ( 'NONE', #93, .T. ) ;
#76 = FACE_OUTER_BOUND ( 'NONE', #87, .T. ) ;
#77 = FACE_OUTER_BOUND ( 'NONE', #85, .T. ) ;
#78 = FACE_OUTER_BOUND ( 'NONE', #83, .T. ) ;
#79 = CIRCLE ( 'NONE', #25, 5.499999999999976900 ) ;
#80 = FACE_BOUND ( 'NONE', #41, .T. ) ;
#81 = CIRCLE ( 'NONE', #19, 5.499999999999893400 ) ;
#82 = CARTESIAN_POINT ( 'NONE',  ( 0.0000000000000000000, 339.0000000000000000, 0.0000000000000000000 ) ) ;
#83 = EDGE_LOOP ( 'NONE', ( #1 ) ) ;
#84 = SURFACE_STYLE_USAGE ( .BOTH. , #6 ) ;
#85 = EDGE_LOOP ( 'NONE', ( #123 ) ) ;
#86 = EDGE_LOOP ( 'NONE', ( #13 ) ) ;
#87 = EDGE_LOOP ( 'NONE', ( #91 ) ) ;
#88 = CARTESIAN_POINT ( 'NONE',  ( 0.0000000000000000000, 338.5000000000000000, 5.999999999999998200 ) ) ;
#89 = EDGE_LOOP ( 'NONE', ( #30 ) ) ;
#90 = APPLICATION_PROTOCOL_DEFINITION ( 'draft international standard', 'automotive_design', 1998, #10 ) ;
#91 = ORIENTED_EDGE ( 'NONE', *, *, #28, .T. ) ;
#92 = FACE_OUTER_BOUND ( 'NONE', #97, .T. ) ;
#93 = EDGE_LOOP ( 'NONE', ( #95 ) ) ;
#94 = CLOSED_SHELL ( 'NONE', ( #109, #98, #3, #43, #48 ) ) ;
#95 = ORIENTED_EDGE ( 'NONE', *, *, #28, .F. ) ;
#96 = ORIENTED_EDGE ( 'NONE', *, *, #31, .F. ) ;
#97 = EDGE_LOOP ( 'NONE', ( #129 ) ) ;
#98 = ADVANCED_FACE ( 'NONE', ( #76 ), #38, .T. ) ;
#99 = DIRECTION ( 'NONE',  ( 0.0000000000000000000, 0.0000000000000000000, 1.000000000000000000 ) ) ;
#100 = CARTESIAN_POINT ( 'NONE',  ( 0.0000000000000000000, 0.5000000000001114700, 0.0000000000000000000 ) ) ;
#101 =( NAMED_UNIT ( * ) PLANE_ANGLE_UNIT ( ) SI_UNIT ( $, .RADIAN. ) );
#102 = CARTESIAN_POINT ( 'NONE',  ( 0.0000000000000000000, 0.0000000000000000000, 5.499999999999893400 ) ) ;
#103 = FILL_AREA_STYLE ('',( #39 ) ) ;
#104 = CIRCLE ( 'NONE', #16, 5.999999999999998200 ) ;
#105 = PRODUCT_RELATED_PRODUCT_CATEGORY ( 'part', '', ( #67 ) ) ;
#106 = AXIS2_PLACEMENT_3D ( 'NONE', #22, #52, #140 ) ;
#107 = PRODUCT_DEFINITION_FORMATION_WITH_SPECIFIED_SOURCE ( 'ANY', '', #67, .NOT_KNOWN. ) ;
#108 = PRODUCT_DEFINITION ( 'UNKNOWN', '', #107, #42 ) ;
#109 = ADVANCED_FACE ( 'NONE', ( #71, #132 ), #65, .T. ) ;
#110 =( GEOMETRIC_REPRESENTATION_CONTEXT ( 3 ) GLOBAL_UNCERTAINTY_ASSIGNED_CONTEXT ( ( #118 ) ) GLOBAL_UNIT_ASSIGNED_CONTEXT ( ( #40, #128, #47 ) ) REPRESENTATION_CONTEXT ( 'NONE', 'WORKASPACE' ) );
#111 = AXIS2_PLACEMENT_3D ( 'NONE', #59, #8, #138 ) ;
#112 = CARTESIAN_POINT ( 'NONE',  ( 0.0000000000000000000, 0.0000000000000000000, 0.0000000000000000000 ) ) ;
#113 = AXIS2_PLACEMENT_3D ( 'NONE', #46, #133, #50 ) ;
#114 = DIRECTION ( 'NONE',  ( 0.0000000000000000000, 0.0000000000000000000, -1.000000000000000000 ) ) ;
#115 = MECHANICAL_DESIGN_GEOMETRIC_PRESENTATION_REPRESENTATION (  '', ( #117 ), #110 ) ;
#116 = DIRECTION ( 'NONE',  ( 0.0000000000000000000, 0.0000000000000000000, 1.000000000000000000 ) ) ;
#117 = STYLED_ITEM ( 'NONE', ( #57 ), #135 ) ;
#118 = UNCERTAINTY_MEASURE_WITH_UNIT (LENGTH_MEASURE( 1.000000000000000100E-005 ), #40, 'distance_accuracy_value', 'NONE');
#119 = PRESENTATION_LAYER_ASSIGNMENT (  '', '', ( #117 ) ) ;
#120 = CARTESIAN_POINT ( 'NONE',  ( 0.0000000000000000000, 0.5000000000001114700, 5.999999999999998200 ) ) ;
#121 = SURFACE_STYLE_USAGE ( .BOTH. , #29 ) ;
#122 =( GEOMETRIC_REPRESENTATION_CONTEXT ( 3 ) GLOBAL_UNCERTAINTY_ASSIGNED_CONTEXT ( ( #14 ) ) GLOBAL_UNIT_ASSIGNED_CONTEXT ( ( #134, #51, #139 ) ) REPRESENTATION_CONTEXT ( 'NONE', 'WORKASPACE' ) );
#123 = ORIENTED_EDGE ( 'NONE', *, *, #35, .F. ) ;
#124 = PLANE ( 'NONE',  #24 ) ;
#125 = CARTESIAN_POINT ( 'NONE',  ( 0.0000000000000000000, 339.0000000000000000, 0.0000000000000000000 ) ) ;
#126 = CARTESIAN_POINT ( 'NONE',  ( 0.0000000000000000000, 0.5000000000001114700, 0.0000000000000000000 ) ) ;
#127 = CARTESIAN_POINT ( 'NONE',  ( 0.0000000000000000000, 339.0000000000000000, 5.499999999999976900 ) ) ;
#128 =( NAMED_UNIT ( * ) PLANE_ANGLE_UNIT ( ) SI_UNIT ( $, .RADIAN. ) );
#129 = ORIENTED_EDGE ( 'NONE', *, *, #31, .T. ) ;
#130 = PRODUCT_DEFINITION_SHAPE ( 'NONE', 'NONE',  #108 ) ;
#131 = DIRECTION ( 'NONE',  ( -0.0000000000000000000, 1.000000000000000000, -0.0000000000000000000 ) ) ;
#132 = FACE_OUTER_BOUND ( 'NONE', #86, .T. ) ;
#133 = DIRECTION ( 'NONE',  ( 0.0000000000000000000, 1.000000000000000000, 0.0000000000000000000 ) ) ;
#134 =( LENGTH_UNIT ( ) NAMED_UNIT ( * ) SI_UNIT ( .MILLI., .METRE. ) );
#135 = ADVANCED_BREP_SHAPE_REPRESENTATION ( '1028-A2P-A', ( #53, #106 ), #122 ) ;
#136 = CARTESIAN_POINT ( 'NONE',  ( 0.0000000000000000000, 338.5000000000000000, 0.0000000000000000000 ) ) ;
#137 = FILL_AREA_STYLE_COLOUR ( '', #73 ) ;
#138 = DIRECTION ( 'NONE',  ( 0.0000000000000000000, 0.0000000000000000000, -1.000000000000000000 ) ) ;
#139 =( NAMED_UNIT ( * ) SI_UNIT ( $, .STERADIAN. ) SOLID_ANGLE_UNIT ( ) );
#140 = DIRECTION ( 'NONE',  ( 1.000000000000000000, 0.0000000000000000000, 0.0000000000000000000 ) ) ;
ENDSEC;
END-ISO-10303-21;
