ISO-10303-21;
HEADER;
FILE_DESCRIPTION (( 'STEP AP203' ),
    '1' );
FILE_NAME ('1502 Spacer.STEP',
    '2014-07-30T13:18:00',
    ( '' ),
    ( '' ),
    'SwSTEP 2.0',
    'SolidWorks 2014',
    '' );
FILE_SCHEMA (( 'CONFIG_CONTROL_DESIGN' ));
ENDSEC;

DATA;
#1 = CLOSED_SHELL ( 'NONE', ( #95, #111, #194, #168, #43, #24 ) ) ;
#2 = DATE_AND_TIME ( #52, #101 ) ;
#3 = DIRECTION ( 'NONE',  ( 0.0000000000000000000, -0.0000000000000000000, 1.000000000000000000 ) ) ;
#4 = DIRECTION ( 'NONE',  ( 0.0000000000000000000, -0.0000000000000000000, 1.000000000000000000 ) ) ;
#5 = APPLICATION_CONTEXT ( 'configuration controlled 3d designs of mechanical parts and assemblies' ) ;
#6 = ORIENTED_EDGE ( 'NONE', *, *, #108, .T. ) ;
#7 = VECTOR ( 'NONE', #198, 1000.000000000000000 ) ;
#8 = CARTESIAN_POINT ( 'NONE',  ( 1.959434878635765200E-016, 8.000000000000000000, 1.600000000000000100 ) ) ;
#9 = PERSON_AND_ORGANIZATION ( #17, #29 ) ;
#10 = CC_DESIGN_PERSON_AND_ORGANIZATION_ASSIGNMENT ( #26, #155, ( #217 ) ) ;
#11 = VERTEX_POINT ( 'NONE', #239 ) ;
#12 = DIRECTION ( 'NONE',  ( 0.0000000000000000000, 0.0000000000000000000, -1.000000000000000000 ) ) ;
#13 = DIRECTION ( 'NONE',  ( 0.0000000000000000000, 0.0000000000000000000, 1.000000000000000000 ) ) ;
#14 = PRODUCT_DEFINITION_SHAPE ( 'NONE', 'NONE',  #145 ) ;
#15 = DIRECTION ( 'NONE',  ( 0.0000000000000000000, 1.000000000000000000, 0.0000000000000000000 ) ) ;
#16 = DIRECTION ( 'NONE',  ( 0.0000000000000000000, 0.0000000000000000000, 1.000000000000000000 ) ) ;
#17 = PERSON ( 'UNSPECIFIED', 'UNSPECIFIED', 'UNSPECIFIED', ('UNSPECIFIED'), ('UNSPECIFIED'), ('UNSPECIFIED') ) ;
#18 = EDGE_LOOP ( 'NONE', ( #229, #210 ) ) ;
#19 = CC_DESIGN_PERSON_AND_ORGANIZATION_ASSIGNMENT ( #222, #48, ( #217 ) ) ;
#20 = LOCAL_TIME ( 15, 18, 0.0000000000000000000, #69 ) ;
#21 = PLANE ( 'NONE',  #71 ) ;
#22 = AXIS2_PLACEMENT_3D ( 'NONE', #213, #94, #235 ) ;
#23 = CARTESIAN_POINT ( 'NONE',  ( 0.0000000000000000000, 0.0000000000000000000, 0.0000000000000000000 ) ) ;
#24 = ADVANCED_FACE ( 'NONE', ( #152 ), #204, .F. ) ;
#25 = MECHANICAL_CONTEXT ( 'NONE', #5, 'mechanical' ) ;
#26 = PERSON_AND_ORGANIZATION ( #17, #29 ) ;
#27 = DIRECTION ( 'NONE',  ( 0.0000000000000000000, 0.0000000000000000000, -1.000000000000000000 ) ) ;
#28 = EDGE_LOOP ( 'NONE', ( #164, #141 ) ) ;
#29 = ORGANIZATION ( 'UNSPECIFIED', 'UNSPECIFIED', '' ) ;
#30 = VECTOR ( 'NONE', #42, 1000.000000000000000 ) ;
#31 = COORDINATED_UNIVERSAL_TIME_OFFSET ( 1, 0, .AHEAD. ) ;
#32 = APPROVAL_ROLE ( '' ) ;
#33 = ORIENTED_EDGE ( 'NONE', *, *, #100, .T. ) ;
#34 = DIRECTION ( 'NONE',  ( -0.0000000000000000000, -1.000000000000000000, -0.0000000000000000000 ) ) ;
#35 = CARTESIAN_POINT ( 'NONE',  ( 0.0000000000000000000, 8.000000000000000000, 0.0000000000000000000 ) ) ;
#36 = SECURITY_CLASSIFICATION ( '', '', #178 ) ;
#37 = CIRCLE ( 'NONE', #220, 1.600000000000000100 ) ;
#38 = AXIS2_PLACEMENT_3D ( 'NONE', #233, #109, #3 ) ;
#39 = LOCAL_TIME ( 15, 18, 0.0000000000000000000, #87 ) ;
#40 = ORIENTED_EDGE ( 'NONE', *, *, #148, .T. ) ;
#41 = CYLINDRICAL_SURFACE ( 'NONE', #218, 1.600000000000000100 ) ;
#42 = DIRECTION ( 'NONE',  ( -0.0000000000000000000, -1.000000000000000000, -0.0000000000000000000 ) ) ;
#43 = ADVANCED_FACE ( 'NONE', ( #96 ), #99, .T. ) ;
#44 = APPLICATION_CONTEXT ( 'configuration controlled 3d designs of mechanical parts and assemblies' ) ;
#45 = VECTOR ( 'NONE', #34, 1000.000000000000000 ) ;
#46 = CC_DESIGN_PERSON_AND_ORGANIZATION_ASSIGNMENT ( #160, #64, ( #36 ) ) ;
#47 = ORIENTED_EDGE ( 'NONE', *, *, #62, .T. ) ;
#48 = PERSON_AND_ORGANIZATION_ROLE ( 'design_supplier' ) ;
#49 = EDGE_CURVE ( 'NONE', #60, #143, #144, .T. ) ;
#50 = LINE ( 'NONE', #83, #199 ) ;
#51 = DIRECTION ( 'NONE',  ( -0.0000000000000000000, -1.000000000000000000, -0.0000000000000000000 ) ) ;
#52 = CALENDAR_DATE ( 2014, 30, 7 ) ;
#53 = DIRECTION ( 'NONE',  ( 0.0000000000000000000, 1.000000000000000000, 0.0000000000000000000 ) ) ;
#54 = CIRCLE ( 'NONE', #146, 3.000000000000000400 ) ;
#55 = DATE_AND_TIME ( #104, #154 ) ;
#56 = CC_DESIGN_DATE_AND_TIME_ASSIGNMENT ( #55, #202, ( #36 ) ) ;
#57 = CARTESIAN_POINT ( 'NONE',  ( 0.0000000000000000000, 8.000000000000000000, 0.0000000000000000000 ) ) ;
#58 =( GEOMETRIC_REPRESENTATION_CONTEXT ( 3 ) GLOBAL_UNCERTAINTY_ASSIGNED_CONTEXT ( ( #175 ) ) GLOBAL_UNIT_ASSIGNED_CONTEXT ( ( #193, #79, #214 ) ) REPRESENTATION_CONTEXT ( 'NONE', 'WORKASPACE' ) );
#59 = APPROVAL_STATUS ( 'not_yet_approved' ) ;
#60 = VERTEX_POINT ( 'NONE', #240 ) ;
#61 = DIRECTION ( 'NONE',  ( -0.0000000000000000000, -1.000000000000000000, -0.0000000000000000000 ) ) ;
#62 = EDGE_CURVE ( 'NONE', #143, #224, #54, .T. ) ;
#63 = ORIENTED_EDGE ( 'NONE', *, *, #74, .T. ) ;
#64 = PERSON_AND_ORGANIZATION_ROLE ( 'classification_officer' ) ;
#65 = ORIENTED_EDGE ( 'NONE', *, *, #89, .F. ) ;
#66 = DESIGN_CONTEXT ( 'detailed design', #44, 'design' ) ;
#67 = CARTESIAN_POINT ( 'NONE',  ( 0.0000000000000000000, 8.000000000000000000, -1.600000000000000100 ) ) ;
#68 = APPROVAL ( #88, 'UNSPECIFIED' ) ;
#69 = COORDINATED_UNIVERSAL_TIME_OFFSET ( 1, 0, .AHEAD. ) ;
#70 = DIRECTION ( 'NONE',  ( 0.0000000000000000000, 1.000000000000000000, 0.0000000000000000000 ) ) ;
#71 = AXIS2_PLACEMENT_3D ( 'NONE', #57, #110, #4 ) ;
#72 = APPROVAL_DATE_TIME ( #118, #230 ) ;
#73 = ORIENTED_EDGE ( 'NONE', *, *, #190, .T. ) ;
#74 = EDGE_CURVE ( 'NONE', #11, #224, #50, .T. ) ;
#75 = SHAPE_DEFINITION_REPRESENTATION ( #14, #128 ) ;
#76 = CARTESIAN_POINT ( 'NONE',  ( 0.0000000000000000000, 0.0000000000000000000, 0.0000000000000000000 ) ) ;
#77 = FACE_OUTER_BOUND ( 'NONE', #18, .T. ) ;
#78 = CARTESIAN_POINT ( 'NONE',  ( 1.959434878635765200E-016, 8.000000000000000000, 1.600000000000000100 ) ) ;
#79 =( NAMED_UNIT ( * ) PLANE_ANGLE_UNIT ( ) SI_UNIT ( $, .RADIAN. ) );
#80 = APPROVAL_PERSON_ORGANIZATION ( #126, #230, #32 ) ;
#81 = PERSON_AND_ORGANIZATION_ROLE ( 'creator' ) ;
#82 = VERTEX_POINT ( 'NONE', #244 ) ;
#83 = CARTESIAN_POINT ( 'NONE',  ( 0.0000000000000000000, 8.000000000000000000, -3.000000000000000400 ) ) ;
#84 = ORIENTED_EDGE ( 'NONE', *, *, #159, .T. ) ;
#85 = CC_DESIGN_APPROVAL ( #68, ( #36 ) ) ;
#86 = CIRCLE ( 'NONE', #192, 3.000000000000000400 ) ;
#87 = COORDINATED_UNIVERSAL_TIME_OFFSET ( 1, 0, .AHEAD. ) ;
#88 = APPROVAL_STATUS ( 'not_yet_approved' ) ;
#89 = EDGE_CURVE ( 'NONE', #215, #82, #91, .T. ) ;
#90 = CIRCLE ( 'NONE', #207, 3.000000000000000400 ) ;
#91 = LINE ( 'NONE', #8, #45 ) ;
#92 = ORIENTED_EDGE ( 'NONE', *, *, #74, .F. ) ;
#93 = DIRECTION ( 'NONE',  ( 0.0000000000000000000, 0.0000000000000000000, 1.000000000000000000 ) ) ;
#94 = DIRECTION ( 'NONE',  ( 0.0000000000000000000, 1.000000000000000000, 0.0000000000000000000 ) ) ;
#95 = ADVANCED_FACE ( 'NONE', ( #103 ), #41, .F. ) ;
#96 = FACE_OUTER_BOUND ( 'NONE', #171, .T. ) ;
#97 = EDGE_LOOP ( 'NONE', ( #33, #73 ) ) ;
#98 = DIRECTION ( 'NONE',  ( 0.0000000000000000000, 0.0000000000000000000, -1.000000000000000000 ) ) ;
#99 = CYLINDRICAL_SURFACE ( 'NONE', #189, 3.000000000000000400 ) ;
#100 = EDGE_CURVE ( 'NONE', #11, #60, #90, .T. ) ;
#101 = LOCAL_TIME ( 15, 18, 0.0000000000000000000, #147 ) ;
#102 = DIRECTION ( 'NONE',  ( 0.0000000000000000000, 1.000000000000000000, 0.0000000000000000000 ) ) ;
#103 = FACE_OUTER_BOUND ( 'NONE', #113, .T. ) ;
#104 = CALENDAR_DATE ( 2014, 30, 7 ) ;
#105 = DIRECTION ( 'NONE',  ( -0.0000000000000000000, -1.000000000000000000, -0.0000000000000000000 ) ) ;
#106 = CARTESIAN_POINT ( 'NONE',  ( 3.673940397442060400E-016, 0.0000000000000000000, 3.000000000000000400 ) ) ;
#107 = ORIENTED_EDGE ( 'NONE', *, *, #49, .F. ) ;
#108 = EDGE_CURVE ( 'NONE', #215, #123, #184, .T. ) ;
#109 = DIRECTION ( 'NONE',  ( 0.0000000000000000000, 1.000000000000000000, 0.0000000000000000000 ) ) ;
#110 = DIRECTION ( 'NONE',  ( 0.0000000000000000000, 1.000000000000000000, 0.0000000000000000000 ) ) ;
#111 = ADVANCED_FACE ( 'NONE', ( #137 ), #232, .T. ) ;
#112 = CARTESIAN_POINT ( 'NONE',  ( 3.673940397442060400E-016, 8.000000000000000000, 3.000000000000000400 ) ) ;
#113 = EDGE_LOOP ( 'NONE', ( #40, #216, #161, #221 ) ) ;
#114 = APPROVAL_PERSON_ORGANIZATION ( #162, #156, #196 ) ;
#115 = FACE_OUTER_BOUND ( 'NONE', #97, .T. ) ;
#116 = AXIS2_PLACEMENT_3D ( 'NONE', #23, #166, #133 ) ;
#117 = ORIENTED_EDGE ( 'NONE', *, *, #176, .T. ) ;
#118 = DATE_AND_TIME ( #170, #228 ) ;
#119 = ORIENTED_EDGE ( 'NONE', *, *, #49, .T. ) ;
#120 = EDGE_CURVE ( 'NONE', #224, #143, #86, .T. ) ;
#121 = DIRECTION ( 'NONE',  ( 0.0000000000000000000, 1.000000000000000000, 0.0000000000000000000 ) ) ;
#122 = CARTESIAN_POINT ( 'NONE',  ( 0.0000000000000000000, 0.0000000000000000000, 0.0000000000000000000 ) ) ;
#123 = VERTEX_POINT ( 'NONE', #67 ) ;
#124 = FACE_BOUND ( 'NONE', #201, .T. ) ;
#125 = DIRECTION ( 'NONE',  ( 0.0000000000000000000, 1.000000000000000000, 0.0000000000000000000 ) ) ;
#126 = PERSON_AND_ORGANIZATION ( #17, #29 ) ;
#127 = ORIENTED_EDGE ( 'NONE', *, *, #136, .T. ) ;
#128 = ADVANCED_BREP_SHAPE_REPRESENTATION ( '1502 Spacer', ( #225, #116 ), #58 ) ;
#129 = CIRCLE ( 'NONE', #234, 1.600000000000000100 ) ;
#130 = EDGE_LOOP ( 'NONE', ( #65, #6, #117, #179 ) ) ;
#131 = CARTESIAN_POINT ( 'NONE',  ( 0.0000000000000000000, 0.0000000000000000000, -3.000000000000000400 ) ) ;
#132 = PERSON_AND_ORGANIZATION ( #17, #29 ) ;
#133 = DIRECTION ( 'NONE',  ( 1.000000000000000000, 0.0000000000000000000, 0.0000000000000000000 ) ) ;
#134 = CARTESIAN_POINT ( 'NONE',  ( 0.0000000000000000000, 8.000000000000000000, 0.0000000000000000000 ) ) ;
#135 = DIRECTION ( 'NONE',  ( -0.0000000000000000000, -1.000000000000000000, -0.0000000000000000000 ) ) ;
#136 = EDGE_CURVE ( 'NONE', #82, #187, #37, .T. ) ;
#137 = FACE_OUTER_BOUND ( 'NONE', #150, .T. ) ;
#138 = APPROVAL_STATUS ( 'not_yet_approved' ) ;
#139 = FACE_BOUND ( 'NONE', #28, .T. ) ;
#140 = CARTESIAN_POINT ( 'NONE',  ( 0.0000000000000000000, 8.000000000000000000, 0.0000000000000000000 ) ) ;
#141 = ORIENTED_EDGE ( 'NONE', *, *, #108, .F. ) ;
#142 = DIRECTION ( 'NONE',  ( 0.0000000000000000000, 0.0000000000000000000, 1.000000000000000000 ) ) ;
#143 = VERTEX_POINT ( 'NONE', #106 ) ;
#144 = LINE ( 'NONE', #112, #7 ) ;
#145 = PRODUCT_DEFINITION ( 'UNKNOWN', '', #217, #66 ) ;
#146 = AXIS2_PLACEMENT_3D ( 'NONE', #242, #102, #195 ) ;
#147 = COORDINATED_UNIVERSAL_TIME_OFFSET ( 1, 0, .AHEAD. ) ;
#148 = EDGE_CURVE ( 'NONE', #123, #215, #129, .T. ) ;
#149 = CARTESIAN_POINT ( 'NONE',  ( 0.0000000000000000000, 8.000000000000000000, -1.600000000000000100 ) ) ;
#150 = EDGE_LOOP ( 'NONE', ( #181, #119, #47, #92 ) ) ;
#151 = PERSON_AND_ORGANIZATION_ROLE ( 'design_owner' ) ;
#152 = FACE_OUTER_BOUND ( 'NONE', #130, .T. ) ;
#153 = CARTESIAN_POINT ( 'NONE',  ( 0.0000000000000000000, 8.000000000000000000, 0.0000000000000000000 ) ) ;
#154 = LOCAL_TIME ( 15, 18, 0.0000000000000000000, #211 ) ;
#155 = PERSON_AND_ORGANIZATION_ROLE ( 'creator' ) ;
#156 = APPROVAL ( #59, 'UNSPECIFIED' ) ;
#157 = AXIS2_PLACEMENT_3D ( 'NONE', #158, #53, #183 ) ;
#158 = CARTESIAN_POINT ( 'NONE',  ( 0.0000000000000000000, 8.000000000000000000, 0.0000000000000000000 ) ) ;
#159 = EDGE_CURVE ( 'NONE', #187, #82, #241, .T. ) ;
#160 = PERSON_AND_ORGANIZATION ( #17, #29 ) ;
#161 = ORIENTED_EDGE ( 'NONE', *, *, #159, .F. ) ;
#162 = PERSON_AND_ORGANIZATION ( #17, #29 ) ;
#163 = LINE ( 'NONE', #149, #30 ) ;
#164 = ORIENTED_EDGE ( 'NONE', *, *, #148, .F. ) ;
#165 = CARTESIAN_POINT ( 'NONE',  ( 0.0000000000000000000, 0.0000000000000000000, -1.600000000000000100 ) ) ;
#166 = DIRECTION ( 'NONE',  ( 0.0000000000000000000, 0.0000000000000000000, 1.000000000000000000 ) ) ;
#167 = ORIENTED_EDGE ( 'NONE', *, *, #100, .F. ) ;
#168 = ADVANCED_FACE ( 'NONE', ( #77, #124 ), #191, .F. ) ;
#169 = APPLICATION_PROTOCOL_DEFINITION ( 'international standard', 'config_control_design', 1994, #44 ) ;
#170 = CALENDAR_DATE ( 2014, 30, 7 ) ;
#171 = EDGE_LOOP ( 'NONE', ( #107, #167, #63, #238 ) ) ;
#172 = DIRECTION ( 'NONE',  ( -0.0000000000000000000, -1.000000000000000000, -0.0000000000000000000 ) ) ;
#173 = CC_DESIGN_APPROVAL ( #156, ( #145 ) ) ;
#174 = AXIS2_PLACEMENT_3D ( 'NONE', #153, #172, #27 ) ;
#175 = UNCERTAINTY_MEASURE_WITH_UNIT (LENGTH_MEASURE( 1.000000000000000100E-005 ), #193, 'distance_accuracy_value', 'NONE');
#176 = EDGE_CURVE ( 'NONE', #123, #187, #163, .T. ) ;
#177 = DATE_AND_TIME ( #237, #39 ) ;
#178 = SECURITY_CLASSIFICATION_LEVEL ( 'unclassified' ) ;
#179 = ORIENTED_EDGE ( 'NONE', *, *, #136, .F. ) ;
#180 = CC_DESIGN_SECURITY_CLASSIFICATION ( #36, ( #217 ) ) ;
#181 = ORIENTED_EDGE ( 'NONE', *, *, #190, .F. ) ;
#182 = DIRECTION ( 'NONE',  ( 0.0000000000000000000, 0.0000000000000000000, -1.000000000000000000 ) ) ;
#183 = DIRECTION ( 'NONE',  ( 0.0000000000000000000, 0.0000000000000000000, 1.000000000000000000 ) ) ;
#184 = CIRCLE ( 'NONE', #157, 1.600000000000000100 ) ;
#185 = CARTESIAN_POINT ( 'NONE',  ( 0.0000000000000000000, 0.0000000000000000000, 0.0000000000000000000 ) ) ;
#186 = APPROVAL_DATE_TIME ( #243, #156 ) ;
#187 = VERTEX_POINT ( 'NONE', #165 ) ;
#188 = CC_DESIGN_PERSON_AND_ORGANIZATION_ASSIGNMENT ( #132, #81, ( #145 ) ) ;
#189 = AXIS2_PLACEMENT_3D ( 'NONE', #134, #61, #98 ) ;
#190 = EDGE_CURVE ( 'NONE', #60, #11, #227, .T. ) ;
#191 = PLANE ( 'NONE',  #38 ) ;
#192 = AXIS2_PLACEMENT_3D ( 'NONE', #122, #15, #142 ) ;
#193 =( LENGTH_UNIT ( ) NAMED_UNIT ( * ) SI_UNIT ( .MILLI., .METRE. ) );
#194 = ADVANCED_FACE ( 'NONE', ( #115, #139 ), #21, .T. ) ;
#195 = DIRECTION ( 'NONE',  ( 0.0000000000000000000, 0.0000000000000000000, 1.000000000000000000 ) ) ;
#196 = APPROVAL_ROLE ( '' ) ;
#197 = PRODUCT_RELATED_PRODUCT_CATEGORY ( 'detail', '', ( #203 ) ) ;
#198 = DIRECTION ( 'NONE',  ( -0.0000000000000000000, -1.000000000000000000, -0.0000000000000000000 ) ) ;
#199 = VECTOR ( 'NONE', #135, 1000.000000000000000 ) ;
#200 = APPROVAL_DATE_TIME ( #2, #68 ) ;
#201 = EDGE_LOOP ( 'NONE', ( #84, #127 ) ) ;
#202 = DATE_TIME_ROLE ( 'classification_date' ) ;
#203 = PRODUCT ( '1502 Spacer', '1502 Spacer', '', ( #25 ) ) ;
#204 = CYLINDRICAL_SURFACE ( 'NONE', #174, 1.600000000000000100 ) ;
#205 = APPROVAL_PERSON_ORGANIZATION ( #9, #68, #223 ) ;
#206 = CC_DESIGN_DATE_AND_TIME_ASSIGNMENT ( #177, #247, ( #145 ) ) ;
#207 = AXIS2_PLACEMENT_3D ( 'NONE', #245, #121, #13 ) ;
#208 = AXIS2_PLACEMENT_3D ( 'NONE', #35, #105, #182 ) ;
#209 = DIRECTION ( 'NONE',  ( 0.0000000000000000000, 0.0000000000000000000, 1.000000000000000000 ) ) ;
#210 = ORIENTED_EDGE ( 'NONE', *, *, #62, .F. ) ;
#211 = COORDINATED_UNIVERSAL_TIME_OFFSET ( 1, 0, .AHEAD. ) ;
#212 = DIRECTION ( 'NONE',  ( 0.0000000000000000000, 1.000000000000000000, 0.0000000000000000000 ) ) ;
#213 = CARTESIAN_POINT ( 'NONE',  ( 0.0000000000000000000, 8.000000000000000000, 0.0000000000000000000 ) ) ;
#214 =( NAMED_UNIT ( * ) SI_UNIT ( $, .STERADIAN. ) SOLID_ANGLE_UNIT ( ) );
#215 = VERTEX_POINT ( 'NONE', #78 ) ;
#216 = ORIENTED_EDGE ( 'NONE', *, *, #89, .T. ) ;
#217 = PRODUCT_DEFINITION_FORMATION_WITH_SPECIFIED_SOURCE ( 'ANY', '', #203, .NOT_KNOWN. ) ;
#218 = AXIS2_PLACEMENT_3D ( 'NONE', #140, #51, #12 ) ;
#219 = CALENDAR_DATE ( 2014, 30, 7 ) ;
#220 = AXIS2_PLACEMENT_3D ( 'NONE', #185, #70, #209 ) ;
#221 = ORIENTED_EDGE ( 'NONE', *, *, #176, .F. ) ;
#222 = PERSON_AND_ORGANIZATION ( #17, #29 ) ;
#223 = APPROVAL_ROLE ( '' ) ;
#224 = VERTEX_POINT ( 'NONE', #131 ) ;
#225 = MANIFOLD_SOLID_BREP ( 'Boss-Extrude1', #1 ) ;
#226 = PERSON_AND_ORGANIZATION ( #17, #29 ) ;
#227 = CIRCLE ( 'NONE', #22, 3.000000000000000400 ) ;
#228 = LOCAL_TIME ( 15, 18, 0.0000000000000000000, #31 ) ;
#229 = ORIENTED_EDGE ( 'NONE', *, *, #120, .F. ) ;
#230 = APPROVAL ( #138, 'UNSPECIFIED' ) ;
#231 = CC_DESIGN_PERSON_AND_ORGANIZATION_ASSIGNMENT ( #226, #151, ( #203 ) ) ;
#232 = CYLINDRICAL_SURFACE ( 'NONE', #208, 3.000000000000000400 ) ;
#233 = CARTESIAN_POINT ( 'NONE',  ( 0.0000000000000000000, 0.0000000000000000000, 0.0000000000000000000 ) ) ;
#234 = AXIS2_PLACEMENT_3D ( 'NONE', #249, #125, #16 ) ;
#235 = DIRECTION ( 'NONE',  ( 0.0000000000000000000, 0.0000000000000000000, 1.000000000000000000 ) ) ;
#236 = APPLICATION_PROTOCOL_DEFINITION ( 'international standard', 'config_control_design', 1994, #5 ) ;
#237 = CALENDAR_DATE ( 2014, 30, 7 ) ;
#238 = ORIENTED_EDGE ( 'NONE', *, *, #120, .T. ) ;
#239 = CARTESIAN_POINT ( 'NONE',  ( 0.0000000000000000000, 8.000000000000000000, -3.000000000000000400 ) ) ;
#240 = CARTESIAN_POINT ( 'NONE',  ( 3.673940397442060400E-016, 8.000000000000000000, 3.000000000000000400 ) ) ;
#241 = CIRCLE ( 'NONE', #248, 1.600000000000000100 ) ;
#242 = CARTESIAN_POINT ( 'NONE',  ( 0.0000000000000000000, 0.0000000000000000000, 0.0000000000000000000 ) ) ;
#243 = DATE_AND_TIME ( #219, #20 ) ;
#244 = CARTESIAN_POINT ( 'NONE',  ( 1.959434878635765200E-016, 0.0000000000000000000, 1.600000000000000100 ) ) ;
#245 = CARTESIAN_POINT ( 'NONE',  ( 0.0000000000000000000, 8.000000000000000000, 0.0000000000000000000 ) ) ;
#246 = CC_DESIGN_APPROVAL ( #230, ( #217 ) ) ;
#247 = DATE_TIME_ROLE ( 'creation_date' ) ;
#248 = AXIS2_PLACEMENT_3D ( 'NONE', #76, #212, #93 ) ;
#249 = CARTESIAN_POINT ( 'NONE',  ( 0.0000000000000000000, 8.000000000000000000, 0.0000000000000000000 ) ) ;
ENDSEC;
END-ISO-10303-21;
