ISO-10303-21;
HEADER;
FILE_DESCRIPTION (( 'STEP AP214' ),
    '1' );
FILE_NAME ('1055-A2P-B.STEP',
    '2013-05-15T14:42:11',
    ( '3DAssist' ),
    ( '' ),
    'SwSTEP 2.0',
    'SolidWorks 2013',
    '' );
FILE_SCHEMA (( 'AUTOMOTIVE_DESIGN' ));
ENDSEC;

DATA;
#1 = FACE_OUTER_BOUND ( 'NONE', #30, .T. ) ;
#2 = FACE_OUTER_BOUND ( 'NONE', #56, .T. ) ;
#3 = CIRCLE ( 'NONE', #102, 3.124999999999999600 ) ;
#4 = SURFACE_STYLE_FILL_AREA ( #32 ) ;
#5 = EDGE_LOOP ( 'NONE', ( #197 ) ) ;
#6 = FACE_OUTER_BOUND ( 'NONE', #22, .T. ) ;
#7 = EDGE_LOOP ( 'NONE', ( #53 ) ) ;
#8 = EDGE_LOOP ( 'NONE', ( #198 ) ) ;
#9 = FACE_OUTER_BOUND ( 'NONE', #8, .T. ) ;
#10 = EDGE_LOOP ( 'NONE', ( #215 ) ) ;
#11 = EDGE_LOOP ( 'NONE', ( #208 ) ) ;
#12 = ADVANCED_FACE ( 'NONE', ( #285, #57 ), #291, .F. ) ;
#13 = SURFACE_STYLE_FILL_AREA ( #144 ) ;
#14 = VERTEX_POINT ( 'NONE', #93 ) ;
#15 = FACE_BOUND ( 'NONE', #107, .T. ) ;
#16 = EDGE_LOOP ( 'NONE', ( #207 ) ) ;
#17 = AXIS2_PLACEMENT_3D ( 'NONE', #69, #68, #264 ) ;
#18 = CYLINDRICAL_SURFACE ( 'NONE', #231, 5.750000000000000000 ) ;
#19 = EDGE_LOOP ( 'NONE', ( #54 ) ) ;
#20 = ADVANCED_FACE ( 'NONE', ( #271, #268 ), #163, .F. ) ;
#21 = EDGE_LOOP ( 'NONE', ( #286 ) ) ;
#22 = EDGE_LOOP ( 'NONE', ( #244 ) ) ;
#23 = EDGE_LOOP ( 'NONE', ( #48 ) ) ;
#24 = FACE_OUTER_BOUND ( 'NONE', #16, .T. ) ;
#25 = EDGE_LOOP ( 'NONE', ( #60 ) ) ;
#26 = CIRCLE ( 'NONE', #222, 5.750000000000000000 ) ;
#27 = EDGE_LOOP ( 'NONE', ( #241 ) ) ;
#28 = PRODUCT_DEFINITION_SHAPE ( 'NONE', 'NONE',  #82 ) ;
#29 = EDGE_LOOP ( 'NONE', ( #45 ) ) ;
#30 = EDGE_LOOP ( 'NONE', ( #73 ) ) ;
#31 = APPLICATION_CONTEXT ( 'automotive_design' ) ;
#32 = FILL_AREA_STYLE ('',( #108 ) ) ;
#33 = SURFACE_SIDE_STYLE ('',( #4 ) ) ;
#34 = SURFACE_STYLE_USAGE ( .BOTH. , #33 ) ;
#35 =( LENGTH_UNIT ( ) NAMED_UNIT ( * ) SI_UNIT ( .MILLI., .METRE. ) );
#36 = CYLINDRICAL_SURFACE ( 'NONE', #235, 3.174999999999999800 ) ;
#37 = EDGE_LOOP ( 'NONE', ( #230 ) ) ;
#38 =( NAMED_UNIT ( * ) PLANE_ANGLE_UNIT ( ) SI_UNIT ( $, .RADIAN. ) );
#39 = COLOUR_RGB ( '',1.000000000000000000, 1.000000000000000000, 1.000000000000000000 ) ;
#40 =( NAMED_UNIT ( * ) SI_UNIT ( $, .STERADIAN. ) SOLID_ANGLE_UNIT ( ) );
#41 = DIRECTION ( 'NONE',  ( 0.0000000000000000000, 0.0000000000000000000, 1.000000000000000000 ) ) ;
#42 = DIRECTION ( 'NONE',  ( 1.000000000000000000, 0.0000000000000000000, 0.0000000000000000000 ) ) ;
#43 = PRODUCT_CONTEXT ( 'NONE', #31, 'mechanical' ) ;
#44 = APPLICATION_CONTEXT ( 'automotive_design' ) ;
#45 = ORIENTED_EDGE ( 'NONE', *, *, #283, .F. ) ;
#46 = APPLICATION_PROTOCOL_DEFINITION ( 'draft international standard', 'automotive_design', 1998, #44 ) ;
#47 = ORIENTED_EDGE ( 'NONE', *, *, #276, .F. ) ;
#48 = ORIENTED_EDGE ( 'NONE', *, *, #278, .T. ) ;
#49 = AXIS2_PLACEMENT_3D ( 'NONE', #110, #66, #186 ) ;
#50 = FACE_OUTER_BOUND ( 'NONE', #37, .T. ) ;
#51 = ORIENTED_EDGE ( 'NONE', *, *, #273, .T. ) ;
#52 = ADVANCED_FACE ( 'NONE', ( #260, #6 ), #287, .T. ) ;
#53 = ORIENTED_EDGE ( 'NONE', *, *, #273, .F. ) ;
#54 = ORIENTED_EDGE ( 'NONE', *, *, #282, .T. ) ;
#55 = ORIENTED_EDGE ( 'NONE', *, *, #263, .F. ) ;
#56 = EDGE_LOOP ( 'NONE', ( #196 ) ) ;
#57 = FACE_OUTER_BOUND ( 'NONE', #5, .T. ) ;
#58 = APPLICATION_PROTOCOL_DEFINITION ( 'draft international standard', 'automotive_design', 1998, #31 ) ;
#59 = EDGE_LOOP ( 'NONE', ( #203 ) ) ;
#60 = ORIENTED_EDGE ( 'NONE', *, *, #278, .F. ) ;
#61 =( NAMED_UNIT ( * ) SI_UNIT ( $, .STERADIAN. ) SOLID_ANGLE_UNIT ( ) );
#62 =( NAMED_UNIT ( * ) PLANE_ANGLE_UNIT ( ) SI_UNIT ( $, .RADIAN. ) );
#63 = CARTESIAN_POINT ( 'NONE',  ( 0.0000000000000000000, 5.099999999999999600, 0.0000000000000000000 ) ) ;
#64 = CLOSED_SHELL ( 'NONE', ( #204, #292, #130, #213, #288, #52, #20, #257, #226, #161, #246, #12 ) ) ;
#65 = ORIENTED_EDGE ( 'NONE', *, *, #270, .F. ) ;
#66 = DIRECTION ( 'NONE',  ( -0.0000000000000000000, 1.000000000000000000, -0.0000000000000000000 ) ) ;
#67 = CYLINDRICAL_SURFACE ( 'NONE', #248, 3.125000000000000000 ) ;
#68 = DIRECTION ( 'NONE',  ( -0.0000000000000000000, -1.000000000000000000, -0.0000000000000000000 ) ) ;
#69 = CARTESIAN_POINT ( 'NONE',  ( 0.0000000000000000000, 15.19999999999999800, 0.0000000000000000000 ) ) ;
#70 = VERTEX_POINT ( 'NONE', #109 ) ;
#71 = DIRECTION ( 'NONE',  ( -0.0000000000000000000, -1.000000000000000000, -0.0000000000000000000 ) ) ;
#72 = DIRECTION ( 'NONE',  ( -0.0000000000000000000, -1.000000000000000000, -0.0000000000000000000 ) ) ;
#73 = ORIENTED_EDGE ( 'NONE', *, *, #274, .T. ) ;
#74 = CARTESIAN_POINT ( 'NONE',  ( 0.0000000000000000000, 6.200000000000000200, 0.0000000000000000000 ) ) ;
#75 = DIRECTION ( 'NONE',  ( -0.0000000000000000000, -1.000000000000000000, -0.0000000000000000000 ) ) ;
#76 = DIRECTION ( 'NONE',  ( 0.0000000000000000000, 0.0000000000000000000, -1.000000000000000000 ) ) ;
#77 = CARTESIAN_POINT ( 'NONE',  ( -3.174999999999999800, 15.19999999999999800, 0.0000000000000000000 ) ) ;
#78 = CARTESIAN_POINT ( 'NONE',  ( 0.0000000000000000000, 15.19999999999999800, 0.0000000000000000000 ) ) ;
#79 = DIRECTION ( 'NONE',  ( -0.0000000000000000000, -1.000000000000000000, -0.0000000000000000000 ) ) ;
#80 = DIRECTION ( 'NONE',  ( 0.0000000000000000000, 0.0000000000000000000, -1.000000000000000000 ) ) ;
#81 = CARTESIAN_POINT ( 'NONE',  ( 0.0000000000000000000, 5.099999999999999600, 0.0000000000000000000 ) ) ;
#82 = PRODUCT_DEFINITION ( 'UNKNOWN', '', #210, #199 ) ;
#83 = DIRECTION ( 'NONE',  ( -0.0000000000000000000, -1.000000000000000000, -0.0000000000000000000 ) ) ;
#84 = DIRECTION ( 'NONE',  ( 0.0000000000000000000, 0.0000000000000000000, -1.000000000000000000 ) ) ;
#85 = DIRECTION ( 'NONE',  ( 0.0000000000000000000, -1.000000000000000000, -0.0000000000000000000 ) ) ;
#86 = DIRECTION ( 'NONE',  ( 0.0000000000000000000, 0.0000000000000000000, -1.000000000000000000 ) ) ;
#87 = DIRECTION ( 'NONE',  ( 0.0000000000000000000, 0.0000000000000000000, -1.000000000000000000 ) ) ;
#88 = CARTESIAN_POINT ( 'NONE',  ( 0.0000000000000000000, 0.0000000000000000000, 0.0000000000000000000 ) ) ;
#89 = DIRECTION ( 'NONE',  ( -0.0000000000000000000, -1.000000000000000000, -0.0000000000000000000 ) ) ;
#90 = CARTESIAN_POINT ( 'NONE',  ( 0.0000000000000000000, 0.0000000000000000000, -3.124999999999999600 ) ) ;
#91 = EDGE_LOOP ( 'NONE', ( #216 ) ) ;
#92 = CARTESIAN_POINT ( 'NONE',  ( 0.0000000000000000000, 8.699999999999994000, -1.587499999999999900 ) ) ;
#93 = CARTESIAN_POINT ( 'NONE',  ( 0.0000000000000000000, 0.0000000000000000000, -1.587499999999999900 ) ) ;
#94 = CARTESIAN_POINT ( 'NONE',  ( 0.0000000000000000000, 0.0000000000000000000, 0.0000000000000000000 ) ) ;
#95 = AXIS2_PLACEMENT_3D ( 'NONE', #112, #111, #113 ) ;
#96 = CARTESIAN_POINT ( 'NONE',  ( 0.0000000000000000000, 9.199999999999997500, -3.174999999999999800 ) ) ;
#97 = CARTESIAN_POINT ( 'NONE',  ( 0.0000000000000000000, 14.19999999999999200, -3.174999999999999800 ) ) ;
#98 = CARTESIAN_POINT ( 'NONE',  ( 0.0000000000000000000, 15.19999999999999800, -4.175000000000001600 ) ) ;
#99 = CARTESIAN_POINT ( 'NONE',  ( 0.0000000000000000000, 6.200000000000000200, -4.999999999999999100 ) ) ;
#100 = CARTESIAN_POINT ( 'NONE',  ( 0.0000000000000000000, 5.099999999999999600, -3.125000000000000000 ) ) ;
#101 = CARTESIAN_POINT ( 'NONE',  ( 0.0000000000000000000, 6.200000000000000200, -5.750000000000000000 ) ) ;
#102 = AXIS2_PLACEMENT_3D ( 'NONE', #116, #189, #114 ) ;
#103 = CARTESIAN_POINT ( 'NONE',  ( 0.0000000000000000000, 15.19999999999999800, -5.000000000000000900 ) ) ;
#104 = UNCERTAINTY_MEASURE_WITH_UNIT (LENGTH_MEASURE( 1.000000000000000100E-005 ), #35, 'distance_accuracy_value', 'NONE');
#105 = CONICAL_SURFACE ( 'NONE', #243, 4.175000000000001600, 0.7853981633974460600 ) ;
#106 = CARTESIAN_POINT ( 'NONE',  ( 0.0000000000000000000, 5.099999999999999600, -5.750000000000000000 ) ) ;
#107 = EDGE_LOOP ( 'NONE', ( #47 ) ) ;
#108 = FILL_AREA_STYLE_COLOUR ( '', #237 ) ;
#109 = CARTESIAN_POINT ( 'NONE',  ( 0.0000000000000000000, 9.199999999999997500, -2.087500000000004400 ) ) ;
#110 = CARTESIAN_POINT ( 'NONE',  ( 0.0000000000000000000, 14.19999999999999200, 0.0000000000000000000 ) ) ;
#111 = DIRECTION ( 'NONE',  ( -0.0000000000000000000, -1.000000000000000000, -0.0000000000000000000 ) ) ;
#112 = CARTESIAN_POINT ( 'NONE',  ( 0.0000000000000000000, 9.199999999999997500, 0.0000000000000000000 ) ) ;
#113 = DIRECTION ( 'NONE',  ( 0.0000000000000000000, 0.0000000000000000000, -1.000000000000000000 ) ) ;
#114 = DIRECTION ( 'NONE',  ( 0.0000000000000000000, 0.0000000000000000000, -1.000000000000000000 ) ) ;
#115 = DIRECTION ( 'NONE',  ( 0.0000000000000000000, 0.0000000000000000000, -1.000000000000000000 ) ) ;
#116 = CARTESIAN_POINT ( 'NONE',  ( 0.0000000000000000000, 0.0000000000000000000, 0.0000000000000000000 ) ) ;
#117 = CARTESIAN_POINT ( 'NONE',  ( 0.0000000000000000000, 6.200000000000000200, 0.0000000000000000000 ) ) ;
#118 = FACE_OUTER_BOUND ( 'NONE', #91, .T. ) ;
#119 = DIRECTION ( 'NONE',  ( -0.0000000000000000000, -1.000000000000000000, -0.0000000000000000000 ) ) ;
#120 = DIRECTION ( 'NONE',  ( 0.0000000000000000000, 0.0000000000000000000, -1.000000000000000000 ) ) ;
#121 = DIRECTION ( 'NONE',  ( 0.0000000000000000000, 0.0000000000000000000, -1.000000000000000000 ) ) ;
#122 = CIRCLE ( 'NONE', #232, 1.587499999999999900 ) ;
#123 = DIRECTION ( 'NONE',  ( -0.0000000000000000000, 1.000000000000000000, -0.0000000000000000000 ) ) ;
#124 = CARTESIAN_POINT ( 'NONE',  ( 0.0000000000000000000, 8.699999999999994000, 0.0000000000000000000 ) ) ;
#125 = DIRECTION ( 'NONE',  ( -0.0000000000000000000, -1.000000000000000000, -0.0000000000000000000 ) ) ;
#126 = CARTESIAN_POINT ( 'NONE',  ( 0.0000000000000000000, 0.0000000000000000000, 0.0000000000000000000 ) ) ;
#127 = CIRCLE ( 'NONE', #225, 5.750000000000000000 ) ;
#128 = CARTESIAN_POINT ( 'NONE',  ( 0.0000000000000000000, 15.19999999999999800, 0.0000000000000000000 ) ) ;
#129 = DIRECTION ( 'NONE',  ( 0.0000000000000000000, 0.0000000000000000000, 1.000000000000000000 ) ) ;
#130 = ADVANCED_FACE ( 'NONE', ( #239, #289 ), #150, .F. ) ;
#131 = DIRECTION ( 'NONE',  ( -0.0000000000000000000, 1.000000000000000000, -0.0000000000000000000 ) ) ;
#132 =( NAMED_UNIT ( * ) PLANE_ANGLE_UNIT ( ) SI_UNIT ( $, .RADIAN. ) );
#133 = SURFACE_STYLE_USAGE ( .BOTH. , #137 ) ;
#134 =( LENGTH_UNIT ( ) NAMED_UNIT ( * ) SI_UNIT ( .MILLI., .METRE. ) );
#135 = FACE_OUTER_BOUND ( 'NONE', #29, .T. ) ;
#136 = EDGE_LOOP ( 'NONE', ( #193 ) ) ;
#137 = SURFACE_SIDE_STYLE ('',( #13 ) ) ;
#138 = FILL_AREA_STYLE_COLOUR ( '', #39 ) ;
#139 = DIRECTION ( 'NONE',  ( 0.0000000000000000000, 0.0000000000000000000, -1.000000000000000000 ) ) ;
#140 = DIRECTION ( 'NONE',  ( -0.0000000000000000000, -1.000000000000000000, -0.0000000000000000000 ) ) ;
#141 = CIRCLE ( 'NONE', #49, 3.174999999999999800 ) ;
#142 = CIRCLE ( 'NONE', #17, 4.175000000000001600 ) ;
#143 = EDGE_LOOP ( 'NONE', ( #55 ) ) ;
#144 = FILL_AREA_STYLE ('',( #138 ) ) ;
#145 = CARTESIAN_POINT ( 'NONE',  ( 0.0000000000000000000, 0.0000000000000000000, 0.0000000000000000000 ) ) ;
#146 = DIRECTION ( 'NONE',  ( 0.0000000000000000000, -1.000000000000000000, -0.0000000000000000000 ) ) ;
#147 = DIRECTION ( 'NONE',  ( 0.0000000000000000000, 0.0000000000000000000, -1.000000000000000000 ) ) ;
#148 = CIRCLE ( 'NONE', #95, 3.174999999999999800 ) ;
#149 = CARTESIAN_POINT ( 'NONE',  ( -1.587499999999999900, 9.199999999999997500, 0.0000000000000000000 ) ) ;
#150 = PLANE ( 'NONE',  #250 ) ;
#151 = DIRECTION ( 'NONE',  ( 0.0000000000000000000, 0.0000000000000000000, -1.000000000000000000 ) ) ;
#152 = CARTESIAN_POINT ( 'NONE',  ( 0.0000000000000000000, 0.0000000000000000000, 0.0000000000000000000 ) ) ;
#153 = EDGE_LOOP ( 'NONE', ( #200 ) ) ;
#154 = PLANE ( 'NONE',  #240 ) ;
#155 = DIRECTION ( 'NONE',  ( 0.0000000000000000000, 0.0000000000000000000, -1.000000000000000000 ) ) ;
#156 = EDGE_LOOP ( 'NONE', ( #65 ) ) ;
#157 = CARTESIAN_POINT ( 'NONE',  ( 0.0000000000000000000, 0.0000000000000000000, 0.0000000000000000000 ) ) ;
#158 =( NAMED_UNIT ( * ) SI_UNIT ( $, .STERADIAN. ) SOLID_ANGLE_UNIT ( ) );
#159 = DIRECTION ( 'NONE',  ( 0.0000000000000000000, 0.0000000000000000000, -1.000000000000000000 ) ) ;
#160 = DIRECTION ( 'NONE',  ( 0.0000000000000000000, -0.0000000000000000000, 1.000000000000000000 ) ) ;
#161 = ADVANCED_FACE ( 'NONE', ( #290, #9 ), #67, .T. ) ;
#162 = EDGE_LOOP ( 'NONE', ( #51 ) ) ;
#163 = PLANE ( 'NONE',  #256 ) ;
#164 = DIRECTION ( 'NONE',  ( -0.0000000000000000000, 1.000000000000000000, -0.0000000000000000000 ) ) ;
#165 = CARTESIAN_POINT ( 'NONE',  ( -4.999999999999999100, 6.200000000000000200, 0.0000000000000000000 ) ) ;
#166 = DIRECTION ( 'NONE',  ( -0.0000000000000000000, -1.000000000000000000, -0.0000000000000000000 ) ) ;
#167 = DIRECTION ( 'NONE',  ( 0.0000000000000000000, 0.0000000000000000000, 1.000000000000000000 ) ) ;
#168 = CARTESIAN_POINT ( 'NONE',  ( -5.750000000000000000, 5.099999999999999600, 0.0000000000000000000 ) ) ;
#169 = UNCERTAINTY_MEASURE_WITH_UNIT (LENGTH_MEASURE( 1.000000000000000100E-005 ), #134, 'distance_accuracy_value', 'NONE');
#170 = CARTESIAN_POINT ( 'NONE',  ( 0.0000000000000000000, 9.199999999999997500, 0.0000000000000000000 ) ) ;
#171 = PLANE ( 'NONE',  #234 ) ;
#172 = DIRECTION ( 'NONE',  ( 0.0000000000000000000, 1.000000000000000000, 0.0000000000000000000 ) ) ;
#173 = UNCERTAINTY_MEASURE_WITH_UNIT (LENGTH_MEASURE( 1.000000000000000100E-005 ), #192, 'distance_accuracy_value', 'NONE');
#174 = DIRECTION ( 'NONE',  ( 0.0000000000000000000, -0.0000000000000000000, 1.000000000000000000 ) ) ;
#175 = CIRCLE ( 'NONE', #224, 5.000000000000000900 ) ;
#176 = DIRECTION ( 'NONE',  ( -0.0000000000000000000, -1.000000000000000000, -0.0000000000000000000 ) ) ;
#177 = CARTESIAN_POINT ( 'NONE',  ( -3.124999999999999600, 0.0000000000000000000, 0.0000000000000000000 ) ) ;
#178 = DIRECTION ( 'NONE',  ( 0.0000000000000000000, 1.000000000000000000, 0.0000000000000000000 ) ) ;
#179 = DIRECTION ( 'NONE',  ( 0.0000000000000000000, 0.0000000000000000000, -1.000000000000000000 ) ) ;
#180 = DIRECTION ( 'NONE',  ( 0.0000000000000000000, 0.0000000000000000000, -1.000000000000000000 ) ) ;
#181 = DIRECTION ( 'NONE',  ( -0.0000000000000000000, -1.000000000000000000, -0.0000000000000000000 ) ) ;
#182 = CIRCLE ( 'NONE', #227, 3.125000000000000000 ) ;
#183 = CARTESIAN_POINT ( 'NONE',  ( 0.0000000000000000000, 0.0000000000000000000, 0.0000000000000000000 ) ) ;
#184 = CARTESIAN_POINT ( 'NONE',  ( 0.0000000000000000000, 9.199999999999997500, 0.0000000000000000000 ) ) ;
#185 = CYLINDRICAL_SURFACE ( 'NONE', #219, 1.587499999999999900 ) ;
#186 = DIRECTION ( 'NONE',  ( 0.0000000000000000000, 0.0000000000000000000, -1.000000000000000000 ) ) ;
#187 = CIRCLE ( 'NONE', #229, 1.587499999999999900 ) ;
#188 = DIRECTION ( 'NONE',  ( 0.0000000000000000000, 0.0000000000000000000, -1.000000000000000000 ) ) ;
#189 = DIRECTION ( 'NONE',  ( -0.0000000000000000000, -1.000000000000000000, -0.0000000000000000000 ) ) ;
#190 = DIRECTION ( 'NONE',  ( 0.0000000000000000000, -1.000000000000000000, -0.0000000000000000000 ) ) ;
#191 = FACE_OUTER_BOUND ( 'NONE', #11, .T. ) ;
#192 =( LENGTH_UNIT ( ) NAMED_UNIT ( * ) SI_UNIT ( .MILLI., .METRE. ) );
#193 = ORIENTED_EDGE ( 'NONE', *, *, #270, .T. ) ;
#194 = SHAPE_DEFINITION_REPRESENTATION ( #28, #266 ) ;
#195 = FACE_OUTER_BOUND ( 'NONE', #136, .T. ) ;
#196 = ORIENTED_EDGE ( 'NONE', *, *, #263, .T. ) ;
#197 = ORIENTED_EDGE ( 'NONE', *, *, #267, .F. ) ;
#198 = ORIENTED_EDGE ( 'NONE', *, *, #280, .T. ) ;
#199 = PRODUCT_DEFINITION_CONTEXT ( 'detailed design', #44, 'design' ) ;
#200 = ORIENTED_EDGE ( 'NONE', *, *, #267, .T. ) ;
#201 = MANIFOLD_SOLID_BREP ( 'Chamfer2', #64 ) ;
#202 = CIRCLE ( 'NONE', #233, 2.087500000000004400 ) ;
#203 = ORIENTED_EDGE ( 'NONE', *, *, #274, .F. ) ;
#204 = ADVANCED_FACE ( 'NONE', ( #269, #275 ), #154, .F. ) ;
#205 = PRODUCT ( '1055-A2P-B', '1055-A2P-B', '', ( #43 ) ) ;
#206 = PLANE ( 'NONE',  #221 ) ;
#207 = ORIENTED_EDGE ( 'NONE', *, *, #284, .F. ) ;
#208 = ORIENTED_EDGE ( 'NONE', *, *, #284, .T. ) ;
#209 = PRODUCT_RELATED_PRODUCT_CATEGORY ( 'part', '', ( #205 ) ) ;
#210 = PRODUCT_DEFINITION_FORMATION_WITH_SPECIFIED_SOURCE ( 'ANY', '', #205, .NOT_KNOWN. ) ;
#211 = AXIS2_PLACEMENT_3D ( 'NONE', #94, #41, #42 ) ;
#212 =( GEOMETRIC_REPRESENTATION_CONTEXT ( 3 ) GLOBAL_UNCERTAINTY_ASSIGNED_CONTEXT ( ( #104 ) ) GLOBAL_UNIT_ASSIGNED_CONTEXT ( ( #35, #38, #40 ) ) REPRESENTATION_CONTEXT ( 'NONE', 'WORKASPACE' ) );
#213 = ADVANCED_FACE ( 'NONE', ( #50, #1 ), #36, .F. ) ;
#214 = MECHANICAL_DESIGN_GEOMETRIC_PRESENTATION_REPRESENTATION (  '', ( #218 ), #212 ) ;
#215 = ORIENTED_EDGE ( 'NONE', *, *, #280, .F. ) ;
#216 = ORIENTED_EDGE ( 'NONE', *, *, #277, .F. ) ;
#217 = PRESENTATION_LAYER_ASSIGNMENT (  '', '', ( #218 ) ) ;
#218 = STYLED_ITEM ( 'NONE', ( #236 ), #266 ) ;
#219 = AXIS2_PLACEMENT_3D ( 'NONE', #88, #89, #87 ) ;
#220 =( GEOMETRIC_REPRESENTATION_CONTEXT ( 3 ) GLOBAL_UNCERTAINTY_ASSIGNED_CONTEXT ( ( #173 ) ) GLOBAL_UNIT_ASSIGNED_CONTEXT ( ( #192, #62, #61 ) ) REPRESENTATION_CONTEXT ( 'NONE', 'WORKASPACE' ) );
#221 = AXIS2_PLACEMENT_3D ( 'NONE', #77, #85, #86 ) ;
#222 = AXIS2_PLACEMENT_3D ( 'NONE', #81, #83, #84 ) ;
#223 = FACE_OUTER_BOUND ( 'NONE', #19, .T. ) ;
#224 = AXIS2_PLACEMENT_3D ( 'NONE', #78, #79, #80 ) ;
#225 = AXIS2_PLACEMENT_3D ( 'NONE', #74, #75, #76 ) ;
#226 = ADVANCED_FACE ( 'NONE', ( #228, #191 ), #171, .F. ) ;
#227 = AXIS2_PLACEMENT_3D ( 'NONE', #63, #71, #188 ) ;
#228 = FACE_BOUND ( 'NONE', #10, .T. ) ;
#229 = AXIS2_PLACEMENT_3D ( 'NONE', #183, #72, #120 ) ;
#230 = ORIENTED_EDGE ( 'NONE', *, *, #276, .T. ) ;
#231 = AXIS2_PLACEMENT_3D ( 'NONE', #126, #125, #159 ) ;
#232 = AXIS2_PLACEMENT_3D ( 'NONE', #124, #123, #121 ) ;
#233 = AXIS2_PLACEMENT_3D ( 'NONE', #184, #181, #180 ) ;
#234 = AXIS2_PLACEMENT_3D ( 'NONE', #168, #178, #160 ) ;
#235 = AXIS2_PLACEMENT_3D ( 'NONE', #157, #176, #179 ) ;
#236 = PRESENTATION_STYLE_ASSIGNMENT (( #34 ) ) ;
#237 = COLOUR_RGB ( '',1.000000000000000000, 1.000000000000000000, 1.000000000000000000 ) ;
#238 = AXIS2_PLACEMENT_3D ( 'NONE', #117, #119, #115 ) ;
#239 = FACE_BOUND ( 'NONE', #153, .T. ) ;
#240 = AXIS2_PLACEMENT_3D ( 'NONE', #177, #172, #174 ) ;
#241 = ORIENTED_EDGE ( 'NONE', *, *, #277, .T. ) ;
#242 = VERTEX_POINT ( 'NONE', #96 ) ;
#243 = AXIS2_PLACEMENT_3D ( 'NONE', #128, #131, #129 ) ;
#244 = ORIENTED_EDGE ( 'NONE', *, *, #283, .T. ) ;
#245 =( GEOMETRIC_REPRESENTATION_CONTEXT ( 3 ) GLOBAL_UNCERTAINTY_ASSIGNED_CONTEXT ( ( #169 ) ) GLOBAL_UNIT_ASSIGNED_CONTEXT ( ( #134, #132, #158 ) ) REPRESENTATION_CONTEXT ( 'NONE', 'WORKASPACE' ) );
#246 = ADVANCED_FACE ( 'NONE', ( #15, #118 ), #105, .F. ) ;
#247 = MECHANICAL_DESIGN_GEOMETRIC_PRESENTATION_REPRESENTATION (  '', ( #249 ), #245 ) ;
#248 = AXIS2_PLACEMENT_3D ( 'NONE', #145, #140, #139 ) ;
#249 = STYLED_ITEM ( 'NONE', ( #281 ), #201 ) ;
#250 = AXIS2_PLACEMENT_3D ( 'NONE', #149, #146, #151 ) ;
#251 = AXIS2_PLACEMENT_3D ( 'NONE', #152, #166, #147 ) ;
#252 = VERTEX_POINT ( 'NONE', #106 ) ;
#253 = VERTEX_POINT ( 'NONE', #103 ) ;
#254 = VERTEX_POINT ( 'NONE', #101 ) ;
#255 = VERTEX_POINT ( 'NONE', #100 ) ;
#256 = AXIS2_PLACEMENT_3D ( 'NONE', #165, #190, #155 ) ;
#257 = ADVANCED_FACE ( 'NONE', ( #24, #223 ), #18, .T. ) ;
#258 = PRESENTATION_LAYER_ASSIGNMENT (  '', '', ( #249 ) ) ;
#259 = VERTEX_POINT ( 'NONE', #99 ) ;
#260 = FACE_OUTER_BOUND ( 'NONE', #25, .T. ) ;
#261 = VERTEX_POINT ( 'NONE', #98 ) ;
#262 = AXIS2_PLACEMENT_3D ( 'NONE', #170, #164, #167 ) ;
#263 = EDGE_CURVE ( 'NONE', #272, #272, #122, .T. ) ;
#264 = DIRECTION ( 'NONE',  ( 0.0000000000000000000, 0.0000000000000000000, -1.000000000000000000 ) ) ;
#265 = VERTEX_POINT ( 'NONE', #90 ) ;
#266 = ADVANCED_BREP_SHAPE_REPRESENTATION ( '1055-A2P-B', ( #201, #211 ), #220 ) ;
#267 = EDGE_CURVE ( 'NONE', #70, #70, #202, .T. ) ;
#268 = FACE_BOUND ( 'NONE', #23, .T. ) ;
#269 = FACE_BOUND ( 'NONE', #156, .T. ) ;
#270 = EDGE_CURVE ( 'NONE', #14, #14, #187, .T. ) ;
#271 = FACE_OUTER_BOUND ( 'NONE', #21, .T. ) ;
#272 = VERTEX_POINT ( 'NONE', #92 ) ;
#273 = EDGE_CURVE ( 'NONE', #265, #265, #3, .T. ) ;
#274 = EDGE_CURVE ( 'NONE', #242, #242, #148, .T. ) ;
#275 = FACE_OUTER_BOUND ( 'NONE', #162, .T. ) ;
#276 = EDGE_CURVE ( 'NONE', #294, #294, #141, .T. ) ;
#277 = EDGE_CURVE ( 'NONE', #261, #261, #142, .T. ) ;
#278 = EDGE_CURVE ( 'NONE', #259, #259, #293, .T. ) ;
#279 = FACE_BOUND ( 'NONE', #27, .T. ) ;
#280 = EDGE_CURVE ( 'NONE', #255, #255, #182, .T. ) ;
#281 = PRESENTATION_STYLE_ASSIGNMENT (( #133 ) ) ;
#282 = EDGE_CURVE ( 'NONE', #254, #254, #127, .T. ) ;
#283 = EDGE_CURVE ( 'NONE', #253, #253, #175, .T. ) ;
#284 = EDGE_CURVE ( 'NONE', #252, #252, #26, .T. ) ;
#285 = FACE_BOUND ( 'NONE', #143, .T. ) ;
#286 = ORIENTED_EDGE ( 'NONE', *, *, #282, .F. ) ;
#287 = CYLINDRICAL_SURFACE ( 'NONE', #251, 5.000000000000000000 ) ;
#288 = ADVANCED_FACE ( 'NONE', ( #279, #135 ), #206, .F. ) ;
#289 = FACE_OUTER_BOUND ( 'NONE', #59, .T. ) ;
#290 = FACE_OUTER_BOUND ( 'NONE', #7, .T. ) ;
#291 = CONICAL_SURFACE ( 'NONE', #262, 2.087500000000004400, 0.7853981633974487200 ) ;
#292 = ADVANCED_FACE ( 'NONE', ( #2, #195 ), #185, .F. ) ;
#293 = CIRCLE ( 'NONE', #238, 4.999999999999999100 ) ;
#294 = VERTEX_POINT ( 'NONE', #97 ) ;
ENDSEC;
END-ISO-10303-21;
