ISO-10303-21;
HEADER;
FILE_DESCRIPTION (( 'STEP AP214' ),
    '1' );
FILE_NAME ('1053-A2P-A.STEP',
    '2013-05-15T14:42:22',
    ( '3DAssist' ),
    ( '' ),
    'SwSTEP 2.0',
    'SolidWorks 2013',
    '' );
FILE_SCHEMA (( 'AUTOMOTIVE_DESIGN' ));
ENDSEC;

DATA;
#1 =( NAMED_UNIT ( * ) SI_UNIT ( $, .STERADIAN. ) SOLID_ANGLE_UNIT ( ) );
#2 = FACE_BOUND ( 'NONE', #255, .T. ) ;
#3 = ORIENTED_EDGE ( 'NONE', *, *, #236, .T. ) ;
#4 =( LENGTH_UNIT ( ) NAMED_UNIT ( * ) SI_UNIT ( .MILLI., .METRE. ) );
#5 =( NAMED_UNIT ( * ) PLANE_ANGLE_UNIT ( ) SI_UNIT ( $, .RADIAN. ) );
#6 = ADVANCED_FACE ( 'NONE', ( #10, #241 ), #51, .T. ) ;
#7 = ADVANCED_FACE ( 'NONE', ( #239, #294 ), #297, .T. ) ;
#8 = ORIENTED_EDGE ( 'NONE', *, *, #20, .F. ) ;
#9 = PRODUCT_DEFINITION_SHAPE ( 'NONE', 'NONE',  #120 ) ;
#10 = FACE_BOUND ( 'NONE', #276, .T. ) ;
#11 = EDGE_LOOP ( 'NONE', ( #14 ) ) ;
#12 = ORIENTED_EDGE ( 'NONE', *, *, #287, .T. ) ;
#13 = AXIS2_PLACEMENT_3D ( 'NONE', #306, #214, #346 ) ;
#14 = ORIENTED_EDGE ( 'NONE', *, *, #233, .T. ) ;
#15 = EDGE_LOOP ( 'NONE', ( #31 ) ) ;
#16 = AXIS2_PLACEMENT_3D ( 'NONE', #399, #401, #46 ) ;
#17 = SURFACE_STYLE_USAGE ( .BOTH. , #18 ) ;
#18 = SURFACE_SIDE_STYLE ('',( #354 ) ) ;
#19 = DIRECTION ( 'NONE',  ( -0.0000000000000000000, -1.000000000000000000, -0.0000000000000000000 ) ) ;
#20 = EDGE_CURVE ( 'NONE', #189, #189, #53, .T. ) ;
#21 = CARTESIAN_POINT ( 'NONE',  ( 0.0000000000000000000, 0.0000000000000000000, 0.0000000000000000000 ) ) ;
#22 = FILL_AREA_STYLE_COLOUR ( '', #363 ) ;
#23 = ADVANCED_FACE ( 'NONE', ( #307, #402 ), #393, .T. ) ;
#24 = CARTESIAN_POINT ( 'NONE',  ( 0.0000000000000000000, 0.0000000000000000000, 0.0000000000000000000 ) ) ;
#25 = DIRECTION ( 'NONE',  ( 0.0000000000000000000, 0.0000000000000000000, -1.000000000000000000 ) ) ;
#26 =( NAMED_UNIT ( * ) SI_UNIT ( $, .STERADIAN. ) SOLID_ANGLE_UNIT ( ) );
#27 = PRODUCT_DEFINITION_CONTEXT ( 'detailed design', #57, 'design' ) ;
#28 =( NAMED_UNIT ( * ) PLANE_ANGLE_UNIT ( ) SI_UNIT ( $, .RADIAN. ) );
#29 = EDGE_CURVE ( 'NONE', #208, #208, #301, .T. ) ;
#30 = UNCERTAINTY_MEASURE_WITH_UNIT (LENGTH_MEASURE( 1.000000000000000100E-005 ), #73, 'distance_accuracy_value', 'NONE');
#31 = ORIENTED_EDGE ( 'NONE', *, *, #236, .F. ) ;
#32 = ADVANCED_FACE ( 'NONE', ( #243, #2 ), #115, .F. ) ;
#33 = FILL_AREA_STYLE ('',( #22 ) ) ;
#34 = ORIENTED_EDGE ( 'NONE', *, *, #293, .F. ) ;
#35 = EDGE_LOOP ( 'NONE', ( #93 ) ) ;
#36 =( LENGTH_UNIT ( ) NAMED_UNIT ( * ) SI_UNIT ( .MILLI., .METRE. ) );
#37 = SURFACE_STYLE_USAGE ( .BOTH. , #39 ) ;
#38 = COLOUR_RGB ( '',0.6274509803921568500, 0.4196078431372549100, 0.1882352941176470600 ) ;
#39 = SURFACE_SIDE_STYLE ('',( #362 ) ) ;
#40 = FILL_AREA_STYLE ('',( #275 ) ) ;
#41 = ADVANCED_FACE ( 'NONE', ( #391, #245 ), #65, .F. ) ;
#42 = ORIENTED_EDGE ( 'NONE', *, *, #233, .F. ) ;
#43 = EDGE_LOOP ( 'NONE', ( #79 ) ) ;
#44 = AXIS2_PLACEMENT_3D ( 'NONE', #110, #112, #113 ) ;
#45 = PLANE ( 'NONE',  #261 ) ;
#46 = DIRECTION ( 'NONE',  ( 0.0000000000000000000, 0.0000000000000000000, -1.000000000000000000 ) ) ;
#47 = DIRECTION ( 'NONE',  ( 0.0000000000000000000, -0.0000000000000000000, 1.000000000000000000 ) ) ;
#48 = PLANE ( 'NONE',  #284 ) ;
#49 =( NAMED_UNIT ( * ) SI_UNIT ( $, .STERADIAN. ) SOLID_ANGLE_UNIT ( ) );
#50 = CARTESIAN_POINT ( 'NONE',  ( -2.999999999999998700, 9.799999999999998900, 0.0000000000000000000 ) ) ;
#51 = CONICAL_SURFACE ( 'NONE', #170, 2.999999999999999100, 0.7853981633974517200 ) ;
#52 = CARTESIAN_POINT ( 'NONE',  ( -2.399999999999999500, 0.0000000000000000000, 0.0000000000000000000 ) ) ;
#53 = CIRCLE ( 'NONE', #16, 1.587500000000000400 ) ;
#54 = PRODUCT_RELATED_PRODUCT_CATEGORY ( 'part', '', ( #256 ) ) ;
#55 = DIRECTION ( 'NONE',  ( 0.0000000000000000000, -0.0000000000000000000, 1.000000000000000000 ) ) ;
#56 = DIRECTION ( 'NONE',  ( 0.0000000000000000000, 1.000000000000000000, 0.0000000000000000000 ) ) ;
#57 = APPLICATION_CONTEXT ( 'automotive_design' ) ;
#58 = SURFACE_STYLE_FILL_AREA ( #303 ) ;
#59 = PRODUCT_CONTEXT ( 'NONE', #100, 'mechanical' ) ;
#60 = DIRECTION ( 'NONE',  ( 0.0000000000000000000, 0.0000000000000000000, -1.000000000000000000 ) ) ;
#61 = DIRECTION ( 'NONE',  ( 1.000000000000000000, 0.0000000000000000000, 0.0000000000000000000 ) ) ;
#62 = DIRECTION ( 'NONE',  ( 0.0000000000000000000, 0.0000000000000000000, 1.000000000000000000 ) ) ;
#63 =( LENGTH_UNIT ( ) NAMED_UNIT ( * ) SI_UNIT ( .MILLI., .METRE. ) );
#64 = APPLICATION_PROTOCOL_DEFINITION ( 'draft international standard', 'automotive_design', 1998, #57 ) ;
#65 = PLANE ( 'NONE',  #296 ) ;
#66 = ORIENTED_EDGE ( 'NONE', *, *, #20, .T. ) ;
#67 = ORIENTED_EDGE ( 'NONE', *, *, #174, .F. ) ;
#68 = CARTESIAN_POINT ( 'NONE',  ( 0.0000000000000000000, 0.0000000000000000000, -2.399999999999999500 ) ) ;
#69 = ORIENTED_EDGE ( 'NONE', *, *, #287, .F. ) ;
#70 =( NAMED_UNIT ( * ) PLANE_ANGLE_UNIT ( ) SI_UNIT ( $, .RADIAN. ) );
#71 = ORIENTED_EDGE ( 'NONE', *, *, #204, .T. ) ;
#72 = DIRECTION ( 'NONE',  ( 0.0000000000000000000, 0.0000000000000000000, -1.000000000000000000 ) ) ;
#73 =( LENGTH_UNIT ( ) NAMED_UNIT ( * ) SI_UNIT ( .MILLI., .METRE. ) );
#74 = ORIENTED_EDGE ( 'NONE', *, *, #168, .T. ) ;
#75 = ORIENTED_EDGE ( 'NONE', *, *, #168, .F. ) ;
#76 = ORIENTED_EDGE ( 'NONE', *, *, #249, .T. ) ;
#77 = ORIENTED_EDGE ( 'NONE', *, *, #300, .F. ) ;
#78 = DIRECTION ( 'NONE',  ( -0.0000000000000000000, -1.000000000000000000, -0.0000000000000000000 ) ) ;
#79 = ORIENTED_EDGE ( 'NONE', *, *, #174, .T. ) ;
#80 = ADVANCED_BREP_SHAPE_REPRESENTATION ( '1053-A2P-A', ( #136, #124 ), #144 ) ;
#81 = SURFACE_STYLE_USAGE ( .BOTH. , #88 ) ;
#82 = ORIENTED_EDGE ( 'NONE', *, *, #29, .F. ) ;
#83 = ORIENTED_EDGE ( 'NONE', *, *, #293, .T. ) ;
#84 = ORIENTED_EDGE ( 'NONE', *, *, #163, .F. ) ;
#85 = CLOSED_SHELL ( 'NONE', ( #299, #361, #142, #86, #23, #41, #140, #357, #103, #32, #7, #119, #111, #91, #289, #6 ) ) ;
#86 = ADVANCED_FACE ( 'NONE', ( #385, #386 ), #48, .F. ) ;
#87 = MECHANICAL_DESIGN_GEOMETRIC_PRESENTATION_REPRESENTATION (  '', ( #155 ), #122 ) ;
#88 = SURFACE_SIDE_STYLE ('',( #187 ) ) ;
#89 = ORIENTED_EDGE ( 'NONE', *, *, #149, .T. ) ;
#90 = ORIENTED_EDGE ( 'NONE', *, *, #316, .F. ) ;
#91 = ADVANCED_FACE ( 'NONE', ( #387, #383 ), #251, .F. ) ;
#92 = ORIENTED_EDGE ( 'NONE', *, *, #268, .T. ) ;
#93 = ORIENTED_EDGE ( 'NONE', *, *, #163, .T. ) ;
#94 = EDGE_LOOP ( 'NONE', ( #75 ) ) ;
#95 = FILL_AREA_STYLE ('',( #123 ) ) ;
#96 = EDGE_LOOP ( 'NONE', ( #150 ) ) ;
#97 = EDGE_LOOP ( 'NONE', ( #271 ) ) ;
#98 = CARTESIAN_POINT ( 'NONE',  ( 0.0000000000000000000, 9.799999999999998900, 0.0000000000000000000 ) ) ;
#99 = EDGE_LOOP ( 'NONE', ( #74 ) ) ;
#100 = APPLICATION_CONTEXT ( 'automotive_design' ) ;
#101 = PRODUCT_DEFINITION_FORMATION_WITH_SPECIFIED_SOURCE ( 'ANY', '', #256, .NOT_KNOWN. ) ;
#102 = EDGE_LOOP ( 'NONE', ( #157 ) ) ;
#103 = ADVANCED_FACE ( 'NONE', ( #389, #379 ), #374, .T. ) ;
#104 = CARTESIAN_POINT ( 'NONE',  ( -2.100000000000000100, 8.800000000000000700, 0.0000000000000000000 ) ) ;
#105 = DIRECTION ( 'NONE',  ( 0.0000000000000000000, -1.000000000000000000, -0.0000000000000000000 ) ) ;
#106 = APPLICATION_PROTOCOL_DEFINITION ( 'draft international standard', 'automotive_design', 1998, #100 ) ;
#107 = CARTESIAN_POINT ( 'NONE',  ( -2.100000000000000100, 4.800000000000000700, 0.0000000000000000000 ) ) ;
#108 = DIRECTION ( 'NONE',  ( 0.0000000000000000000, 1.000000000000000000, 0.0000000000000000000 ) ) ;
#109 =( NAMED_UNIT ( * ) SI_UNIT ( $, .STERADIAN. ) SOLID_ANGLE_UNIT ( ) );
#110 = CARTESIAN_POINT ( 'NONE',  ( 0.0000000000000000000, 20.00000000000000000, 0.0000000000000000000 ) ) ;
#111 = ADVANCED_FACE ( 'NONE', ( #384, #372 ), #369, .T. ) ;
#112 = DIRECTION ( 'NONE',  ( 0.0000000000000000000, 1.000000000000000000, 0.0000000000000000000 ) ) ;
#113 = DIRECTION ( 'NONE',  ( 0.0000000000000000000, 0.0000000000000000000, -1.000000000000000000 ) ) ;
#114 = UNCERTAINTY_MEASURE_WITH_UNIT (LENGTH_MEASURE( 1.000000000000000100E-005 ), #337, 'distance_accuracy_value', 'NONE');
#115 = PLANE ( 'NONE',  #309 ) ;
#116 = DIRECTION ( 'NONE',  ( 0.0000000000000000000, -1.000000000000000000, -0.0000000000000000000 ) ) ;
#117 =( NAMED_UNIT ( * ) PLANE_ANGLE_UNIT ( ) SI_UNIT ( $, .RADIAN. ) );
#118 = PRESENTATION_LAYER_ASSIGNMENT (  '', '', ( #155 ) ) ;
#119 = ADVANCED_FACE ( 'NONE', ( #375, #368 ), #45, .F. ) ;
#120 = PRODUCT_DEFINITION ( 'UNKNOWN', '', #101, #27 ) ;
#121 = EDGE_LOOP ( 'NONE', ( #8 ) ) ;
#122 =( GEOMETRIC_REPRESENTATION_CONTEXT ( 3 ) GLOBAL_UNCERTAINTY_ASSIGNED_CONTEXT ( ( #114 ) ) GLOBAL_UNIT_ASSIGNED_CONTEXT ( ( #337, #341, #336 ) ) REPRESENTATION_CONTEXT ( 'NONE', 'WORKASPACE' ) );
#123 = FILL_AREA_STYLE_COLOUR ( '', #38 ) ;
#124 = AXIS2_PLACEMENT_3D ( 'NONE', #177, #62, #61 ) ;
#125 = DIRECTION ( 'NONE',  ( 0.0000000000000000000, 0.0000000000000000000, -1.000000000000000000 ) ) ;
#126 = CARTESIAN_POINT ( 'NONE',  ( 0.0000000000000000000, 1.500000000000000000, -2.399999999999999500 ) ) ;
#127 = CARTESIAN_POINT ( 'NONE',  ( 0.0000000000000000000, 1.500000000000000000, -2.999999999999997800 ) ) ;
#128 =( GEOMETRIC_REPRESENTATION_CONTEXT ( 3 ) GLOBAL_UNCERTAINTY_ASSIGNED_CONTEXT ( ( #30 ) ) GLOBAL_UNIT_ASSIGNED_CONTEXT ( ( #73, #70, #49 ) ) REPRESENTATION_CONTEXT ( 'NONE', 'WORKASPACE' ) );
#129 = UNCERTAINTY_MEASURE_WITH_UNIT (LENGTH_MEASURE( 1.000000000000000100E-005 ), #4, 'distance_accuracy_value', 'NONE');
#130 = CARTESIAN_POINT ( 'NONE',  ( 0.0000000000000000000, 4.300000000000004300, -2.999999999999998200 ) ) ;
#131 = UNCERTAINTY_MEASURE_WITH_UNIT (LENGTH_MEASURE( 1.000000000000000100E-005 ), #36, 'distance_accuracy_value', 'NONE');
#132 = CARTESIAN_POINT ( 'NONE',  ( 0.0000000000000000000, 4.800000000000000700, -2.500000000000000400 ) ) ;
#133 = MECHANICAL_DESIGN_GEOMETRIC_PRESENTATION_REPRESENTATION (  '', ( #138 ), #128 ) ;
#134 = CARTESIAN_POINT ( 'NONE',  ( 0.0000000000000000000, 4.800000000000000700, -2.100000000000000100 ) ) ;
#135 = PRESENTATION_LAYER_ASSIGNMENT (  '', '', ( #138 ) ) ;
#136 = MANIFOLD_SOLID_BREP ( 'Chamfer1', #85 ) ;
#137 = CARTESIAN_POINT ( 'NONE',  ( 0.0000000000000000000, 7.800000000000000700, -2.100000000000000100 ) ) ;
#138 = STYLED_ITEM ( 'NONE', ( #159 ), #80 ) ;
#139 = CARTESIAN_POINT ( 'NONE',  ( 0.0000000000000000000, 8.800000000000000700, -5.000000000000000000 ) ) ;
#140 = ADVANCED_FACE ( 'NONE', ( #371, #376 ), #338, .T. ) ;
#141 = CARTESIAN_POINT ( 'NONE',  ( 0.0000000000000000000, 8.800000000000000700, -2.100000000000000100 ) ) ;
#142 = ADVANCED_FACE ( 'NONE', ( #348, #343 ), #320, .T. ) ;
#143 = AXIS2_PLACEMENT_3D ( 'NONE', #197, #244, #182 ) ;
#144 =( GEOMETRIC_REPRESENTATION_CONTEXT ( 3 ) GLOBAL_UNCERTAINTY_ASSIGNED_CONTEXT ( ( #211 ) ) GLOBAL_UNIT_ASSIGNED_CONTEXT ( ( #63, #117, #109 ) ) REPRESENTATION_CONTEXT ( 'NONE', 'WORKASPACE' ) );
#145 = AXIS2_PLACEMENT_3D ( 'NONE', #280, #200, #198 ) ;
#146 = ORIENTED_EDGE ( 'NONE', *, *, #268, .F. ) ;
#147 = CARTESIAN_POINT ( 'NONE',  ( 0.0000000000000000000, 0.0000000000000000000, -1.587500000000000400 ) ) ;
#148 = ORIENTED_EDGE ( 'NONE', *, *, #300, .T. ) ;
#149 = EDGE_CURVE ( 'NONE', #209, #209, #324, .T. ) ;
#150 = ORIENTED_EDGE ( 'NONE', *, *, #167, .T. ) ;
#151 = EDGE_LOOP ( 'NONE', ( #66 ) ) ;
#152 = AXIS2_PLACEMENT_3D ( 'NONE', #380, #378, #360 ) ;
#153 = AXIS2_PLACEMENT_3D ( 'NONE', #203, #166, #229 ) ;
#154 = AXIS2_PLACEMENT_3D ( 'NONE', #225, #212, #125 ) ;
#155 = STYLED_ITEM ( 'NONE', ( #403 ), #7 ) ;
#156 = AXIS2_PLACEMENT_3D ( 'NONE', #282, #240, #298 ) ;
#157 = ORIENTED_EDGE ( 'NONE', *, *, #204, .F. ) ;
#158 = AXIS2_PLACEMENT_3D ( 'NONE', #347, #353, #216 ) ;
#159 = PRESENTATION_STYLE_ASSIGNMENT (( #81 ) ) ;
#160 = AXIS2_PLACEMENT_3D ( 'NONE', #355, #356, #358 ) ;
#161 = AXIS2_PLACEMENT_3D ( 'NONE', #349, #350, #351 ) ;
#162 = CARTESIAN_POINT ( 'NONE',  ( 0.0000000000000000000, 9.799999999999998900, -2.100000000000000100 ) ) ;
#163 = EDGE_CURVE ( 'NONE', #205, #205, #322, .T. ) ;
#164 = CARTESIAN_POINT ( 'NONE',  ( 0.0000000000000000000, 9.799999999999998900, -2.999999999999998700 ) ) ;
#165 = AXIS2_PLACEMENT_3D ( 'NONE', #342, #344, #345 ) ;
#166 = DIRECTION ( 'NONE',  ( -0.0000000000000000000, -1.000000000000000000, -0.0000000000000000000 ) ) ;
#167 = EDGE_CURVE ( 'NONE', #201, #201, #334, .T. ) ;
#168 = EDGE_CURVE ( 'NONE', #194, #194, #333, .T. ) ;
#169 = CIRCLE ( 'NONE', #154, 2.399999999999999500 ) ;
#170 = AXIS2_PLACEMENT_3D ( 'NONE', #305, #310, #277 ) ;
#171 = CIRCLE ( 'NONE', #156, 2.999999999999997800 ) ;
#172 = FACE_OUTER_BOUND ( 'NONE', #121, .T. ) ;
#173 = DIRECTION ( 'NONE',  ( -0.0000000000000000000, -1.000000000000000000, -0.0000000000000000000 ) ) ;
#174 = EDGE_CURVE ( 'NONE', #202, #202, #327, .T. ) ;
#175 = FACE_BOUND ( 'NONE', #15, .T. ) ;
#176 = CONICAL_SURFACE ( 'NONE', #158, 2.999999999999998200, 0.7853981633974500600 ) ;
#177 = CARTESIAN_POINT ( 'NONE',  ( 0.0000000000000000000, 0.0000000000000000000, 0.0000000000000000000 ) ) ;
#178 = FACE_OUTER_BOUND ( 'NONE', #279, .T. ) ;
#179 = CARTESIAN_POINT ( 'NONE',  ( 0.0000000000000000000, 7.800000000000000700, -5.000000000000000000 ) ) ;
#180 = CARTESIAN_POINT ( 'NONE',  ( 0.0000000000000000000, 20.00000000000000000, -1.587500000000000400 ) ) ;
#181 = CARTESIAN_POINT ( 'NONE',  ( 0.0000000000000000000, 20.00000000000000000, -2.499999999999995100 ) ) ;
#182 = DIRECTION ( 'NONE',  ( 0.0000000000000000000, 0.0000000000000000000, -1.000000000000000000 ) ) ;
#183 = ORIENTED_EDGE ( 'NONE', *, *, #29, .T. ) ;
#184 = CARTESIAN_POINT ( 'NONE',  ( 0.0000000000000000000, 19.50000000000000000, -2.999999999999999100 ) ) ;
#185 = AXIS2_PLACEMENT_3D ( 'NONE', #218, #339, #340 ) ;
#186 = CIRCLE ( 'NONE', #153, 2.399999999999999500 ) ;
#187 = SURFACE_STYLE_FILL_AREA ( #95 ) ;
#188 = AXIS2_PLACEMENT_3D ( 'NONE', #328, #330, #335 ) ;
#189 = VERTEX_POINT ( 'NONE', #180 ) ;
#190 = PLANE ( 'NONE',  #143 ) ;
#191 = CYLINDRICAL_SURFACE ( 'NONE', #152, 1.587500000000000400 ) ;
#192 = FACE_OUTER_BOUND ( 'NONE', #265, .T. ) ;
#193 = AXIS2_PLACEMENT_3D ( 'NONE', #321, #323, #326 ) ;
#194 = VERTEX_POINT ( 'NONE', #162 ) ;
#195 = AXIS2_PLACEMENT_3D ( 'NONE', #317, #173, #373 ) ;
#196 = AXIS2_PLACEMENT_3D ( 'NONE', #400, #390, #394 ) ;
#197 = CARTESIAN_POINT ( 'NONE',  ( -1.587500000000000400, 20.00000000000000000, 0.0000000000000000000 ) ) ;
#198 = DIRECTION ( 'NONE',  ( 0.0000000000000000000, -0.0000000000000000000, 1.000000000000000000 ) ) ;
#199 = AXIS2_PLACEMENT_3D ( 'NONE', #98, #78, #388 ) ;
#200 = DIRECTION ( 'NONE',  ( 0.0000000000000000000, 1.000000000000000000, 0.0000000000000000000 ) ) ;
#201 = VERTEX_POINT ( 'NONE', #164 ) ;
#202 = VERTEX_POINT ( 'NONE', #147 ) ;
#203 = CARTESIAN_POINT ( 'NONE',  ( 0.0000000000000000000, 1.500000000000000000, 0.0000000000000000000 ) ) ;
#204 = EDGE_CURVE ( 'NONE', #221, #221, #319, .T. ) ;
#205 = VERTEX_POINT ( 'NONE', #184 ) ;
#206 = AXIS2_PLACEMENT_3D ( 'NONE', #21, #19, #318 ) ;
#207 = FACE_OUTER_BOUND ( 'NONE', #308, .T. ) ;
#208 = VERTEX_POINT ( 'NONE', #181 ) ;
#209 = VERTEX_POINT ( 'NONE', #179 ) ;
#210 = AXIS2_PLACEMENT_3D ( 'NONE', #364, #382, #370 ) ;
#211 = UNCERTAINTY_MEASURE_WITH_UNIT (LENGTH_MEASURE( 1.000000000000000100E-005 ), #63, 'distance_accuracy_value', 'NONE');
#212 = DIRECTION ( 'NONE',  ( -0.0000000000000000000, -1.000000000000000000, -0.0000000000000000000 ) ) ;
#213 = AXIS2_PLACEMENT_3D ( 'NONE', #367, #365, #295 ) ;
#214 = DIRECTION ( 'NONE',  ( -0.0000000000000000000, -1.000000000000000000, -0.0000000000000000000 ) ) ;
#215 =( GEOMETRIC_REPRESENTATION_CONTEXT ( 3 ) GLOBAL_UNCERTAINTY_ASSIGNED_CONTEXT ( ( #129 ) ) GLOBAL_UNIT_ASSIGNED_CONTEXT ( ( #4, #5, #1 ) ) REPRESENTATION_CONTEXT ( 'NONE', 'WORKASPACE' ) );
#216 = DIRECTION ( 'NONE',  ( 0.0000000000000000000, 0.0000000000000000000, -1.000000000000000000 ) ) ;
#217 = FACE_BOUND ( 'NONE', #151, .T. ) ;
#218 = CARTESIAN_POINT ( 'NONE',  ( 0.0000000000000000000, 7.800000000000000700, 0.0000000000000000000 ) ) ;
#219 = MECHANICAL_DESIGN_GEOMETRIC_PRESENTATION_REPRESENTATION (  '', ( #228 ), #215 ) ;
#220 = SHAPE_DEFINITION_REPRESENTATION ( #9, #80 ) ;
#221 = VERTEX_POINT ( 'NONE', #141 ) ;
#222 = VERTEX_POINT ( 'NONE', #134 ) ;
#223 = AXIS2_PLACEMENT_3D ( 'NONE', #24, #404, #25 ) ;
#224 = VERTEX_POINT ( 'NONE', #132 ) ;
#225 = CARTESIAN_POINT ( 'NONE',  ( 0.0000000000000000000, 0.0000000000000000000, 0.0000000000000000000 ) ) ;
#226 = VERTEX_POINT ( 'NONE', #130 ) ;
#227 = PLANE ( 'NONE',  #145 ) ;
#228 = STYLED_ITEM ( 'NONE', ( #352 ), #142 ) ;
#229 = DIRECTION ( 'NONE',  ( 0.0000000000000000000, 0.0000000000000000000, -1.000000000000000000 ) ) ;
#230 = VERTEX_POINT ( 'NONE', #127 ) ;
#231 = VERTEX_POINT ( 'NONE', #126 ) ;
#232 = VERTEX_POINT ( 'NONE', #68 ) ;
#233 = EDGE_CURVE ( 'NONE', #329, #329, #302, .T. ) ;
#234 = FACE_OUTER_BOUND ( 'NONE', #43, .T. ) ;
#235 = CIRCLE ( 'NONE', #165, 2.100000000000000100 ) ;
#236 = EDGE_CURVE ( 'NONE', #238, #238, #285, .T. ) ;
#237 = PRESENTATION_LAYER_ASSIGNMENT (  '', '', ( #228 ) ) ;
#238 = VERTEX_POINT ( 'NONE', #137 ) ;
#239 = FACE_OUTER_BOUND ( 'NONE', #396, .T. ) ;
#240 = DIRECTION ( 'NONE',  ( -0.0000000000000000000, -1.000000000000000000, -0.0000000000000000000 ) ) ;
#241 = FACE_OUTER_BOUND ( 'NONE', #274, .T. ) ;
#242 =( GEOMETRIC_REPRESENTATION_CONTEXT ( 3 ) GLOBAL_UNCERTAINTY_ASSIGNED_CONTEXT ( ( #131 ) ) GLOBAL_UNIT_ASSIGNED_CONTEXT ( ( #36, #28, #26 ) ) REPRESENTATION_CONTEXT ( 'NONE', 'WORKASPACE' ) );
#243 = FACE_OUTER_BOUND ( 'NONE', #286, .T. ) ;
#244 = DIRECTION ( 'NONE',  ( 0.0000000000000000000, -1.000000000000000000, -0.0000000000000000000 ) ) ;
#245 = FACE_BOUND ( 'NONE', #398, .T. ) ;
#246 = MECHANICAL_DESIGN_GEOMETRIC_PRESENTATION_REPRESENTATION (  '', ( #272 ), #242 ) ;
#247 = COLOUR_RGB ( '',0.6470588235294118000, 0.5137254901960783800, 0.0000000000000000000 ) ;
#248 = DIRECTION ( 'NONE',  ( 0.0000000000000000000, -0.0000000000000000000, 1.000000000000000000 ) ) ;
#249 = EDGE_CURVE ( 'NONE', #222, #222, #235, .T. ) ;
#250 = CARTESIAN_POINT ( 'NONE',  ( 0.0000000000000000000, 0.0000000000000000000, 0.0000000000000000000 ) ) ;
#251 = PLANE ( 'NONE',  #278 ) ;
#252 = DIRECTION ( 'NONE',  ( 0.0000000000000000000, 0.0000000000000000000, -1.000000000000000000 ) ) ;
#253 = ORIENTED_EDGE ( 'NONE', *, *, #149, .F. ) ;
#254 = CARTESIAN_POINT ( 'NONE',  ( 0.0000000000000000000, 0.0000000000000000000, 0.0000000000000000000 ) ) ;
#255 = EDGE_LOOP ( 'NONE', ( #76 ) ) ;
#256 = PRODUCT ( '1053-A2P-A', '1053-A2P-A', '', ( #59 ) ) ;
#257 = PRESENTATION_LAYER_ASSIGNMENT (  '', '', ( #272 ) ) ;
#258 = EDGE_LOOP ( 'NONE', ( #264 ) ) ;
#259 = DIRECTION ( 'NONE',  ( -0.0000000000000000000, -1.000000000000000000, -0.0000000000000000000 ) ) ;
#260 = EDGE_LOOP ( 'NONE', ( #83 ) ) ;
#261 = AXIS2_PLACEMENT_3D ( 'NONE', #263, #283, #47 ) ;
#262 = ORIENTED_EDGE ( 'NONE', *, *, #249, .F. ) ;
#263 = CARTESIAN_POINT ( 'NONE',  ( -2.999999999999997800, 1.500000000000000000, 0.0000000000000000000 ) ) ;
#264 = ORIENTED_EDGE ( 'NONE', *, *, #316, .T. ) ;
#265 = EDGE_LOOP ( 'NONE', ( #183 ) ) ;
#266 = AXIS2_PLACEMENT_3D ( 'NONE', #250, #270, #267 ) ;
#267 = DIRECTION ( 'NONE',  ( 0.0000000000000000000, 0.0000000000000000000, -1.000000000000000000 ) ) ;
#268 = EDGE_CURVE ( 'NONE', #224, #224, #325, .T. ) ;
#269 = AXIS2_PLACEMENT_3D ( 'NONE', #254, #259, #252 ) ;
#270 = DIRECTION ( 'NONE',  ( -0.0000000000000000000, -1.000000000000000000, -0.0000000000000000000 ) ) ;
#271 = ORIENTED_EDGE ( 'NONE', *, *, #167, .F. ) ;
#272 = STYLED_ITEM ( 'NONE', ( #359 ), #136 ) ;
#273 = EDGE_LOOP ( 'NONE', ( #146 ) ) ;
#274 = EDGE_LOOP ( 'NONE', ( #84 ) ) ;
#275 = FILL_AREA_STYLE_COLOUR ( '', #381 ) ;
#276 = EDGE_LOOP ( 'NONE', ( #82 ) ) ;
#277 = DIRECTION ( 'NONE',  ( 0.0000000000000000000, 0.0000000000000000000, -1.000000000000000000 ) ) ;
#278 = AXIS2_PLACEMENT_3D ( 'NONE', #52, #108, #248 ) ;
#279 = EDGE_LOOP ( 'NONE', ( #69 ) ) ;
#280 = CARTESIAN_POINT ( 'NONE',  ( -5.000000000000000000, 7.800000000000000700, 0.0000000000000000000 ) ) ;
#281 = EDGE_LOOP ( 'NONE', ( #67 ) ) ;
#282 = CARTESIAN_POINT ( 'NONE',  ( 0.0000000000000000000, 1.500000000000000000, 0.0000000000000000000 ) ) ;
#283 = DIRECTION ( 'NONE',  ( 0.0000000000000000000, 1.000000000000000000, 0.0000000000000000000 ) ) ;
#284 = AXIS2_PLACEMENT_3D ( 'NONE', #50, #56, #55 ) ;
#285 = CIRCLE ( 'NONE', #185, 2.100000000000000100 ) ;
#286 = EDGE_LOOP ( 'NONE', ( #92 ) ) ;
#287 = EDGE_CURVE ( 'NONE', #226, #226, #315, .T. ) ;
#288 = CARTESIAN_POINT ( 'NONE',  ( 0.0000000000000000000, 0.0000000000000000000, 0.0000000000000000000 ) ) ;
#289 = ADVANCED_FACE ( 'NONE', ( #331, #178 ), #176, .T. ) ;
#290 = EDGE_LOOP ( 'NONE', ( #77 ) ) ;
#291 = EDGE_LOOP ( 'NONE', ( #90 ) ) ;
#292 = EDGE_LOOP ( 'NONE', ( #34 ) ) ;
#293 = EDGE_CURVE ( 'NONE', #230, #230, #171, .T. ) ;
#294 = FACE_OUTER_BOUND ( 'NONE', #292, .T. ) ;
#295 = DIRECTION ( 'NONE',  ( 0.0000000000000000000, 0.0000000000000000000, -1.000000000000000000 ) ) ;
#296 = AXIS2_PLACEMENT_3D ( 'NONE', #104, #116, #60 ) ;
#297 = CYLINDRICAL_SURFACE ( 'NONE', #13, 2.999999999999998200 ) ;
#298 = DIRECTION ( 'NONE',  ( 0.0000000000000000000, 0.0000000000000000000, -1.000000000000000000 ) ) ;
#299 = ADVANCED_FACE ( 'NONE', ( #172, #234 ), #191, .F. ) ;
#300 = EDGE_CURVE ( 'NONE', #231, #231, #186, .T. ) ;
#301 = CIRCLE ( 'NONE', #44, 2.499999999999995100 ) ;
#302 = CIRCLE ( 'NONE', #188, 5.000000000000000000 ) ;
#303 = FILL_AREA_STYLE ('',( #312 ) ) ;
#304 = EDGE_LOOP ( 'NONE', ( #262 ) ) ;
#305 = CARTESIAN_POINT ( 'NONE',  ( 0.0000000000000000000, 19.50000000000000000, 0.0000000000000000000 ) ) ;
#306 = CARTESIAN_POINT ( 'NONE',  ( 0.0000000000000000000, 0.0000000000000000000, 0.0000000000000000000 ) ) ;
#307 = FACE_OUTER_BOUND ( 'NONE', #102, .T. ) ;
#308 = EDGE_LOOP ( 'NONE', ( #89 ) ) ;
#309 = AXIS2_PLACEMENT_3D ( 'NONE', #107, #105, #72 ) ;
#310 = DIRECTION ( 'NONE',  ( -0.0000000000000000000, -1.000000000000000000, -0.0000000000000000000 ) ) ;
#311 = EDGE_LOOP ( 'NONE', ( #3 ) ) ;
#312 = FILL_AREA_STYLE_COLOUR ( '', #247 ) ;
#313 = AXIS2_PLACEMENT_3D ( 'NONE', #288, #397, #377 ) ;
#314 = SURFACE_STYLE_USAGE ( .BOTH. , #332 ) ;
#315 = CIRCLE ( 'NONE', #160, 2.999999999999998200 ) ;
#316 = EDGE_CURVE ( 'NONE', #232, #232, #169, .T. ) ;
#317 = CARTESIAN_POINT ( 'NONE',  ( 0.0000000000000000000, 0.0000000000000000000, 0.0000000000000000000 ) ) ;
#318 = DIRECTION ( 'NONE',  ( 0.0000000000000000000, 0.0000000000000000000, -1.000000000000000000 ) ) ;
#319 = CIRCLE ( 'NONE', #193, 2.100000000000000100 ) ;
#320 = CYLINDRICAL_SURFACE ( 'NONE', #206, 2.999999999999999100 ) ;
#321 = CARTESIAN_POINT ( 'NONE',  ( 0.0000000000000000000, 8.800000000000000700, 0.0000000000000000000 ) ) ;
#322 = CIRCLE ( 'NONE', #213, 2.999999999999999100 ) ;
#323 = DIRECTION ( 'NONE',  ( -0.0000000000000000000, -1.000000000000000000, -0.0000000000000000000 ) ) ;
#324 = CIRCLE ( 'NONE', #210, 5.000000000000000000 ) ;
#325 = CIRCLE ( 'NONE', #161, 2.500000000000000400 ) ;
#326 = DIRECTION ( 'NONE',  ( 0.0000000000000000000, 0.0000000000000000000, -1.000000000000000000 ) ) ;
#327 = CIRCLE ( 'NONE', #195, 1.587500000000000400 ) ;
#328 = CARTESIAN_POINT ( 'NONE',  ( 0.0000000000000000000, 8.800000000000000700, 0.0000000000000000000 ) ) ;
#329 = VERTEX_POINT ( 'NONE', #139 ) ;
#330 = DIRECTION ( 'NONE',  ( -0.0000000000000000000, -1.000000000000000000, -0.0000000000000000000 ) ) ;
#331 = FACE_BOUND ( 'NONE', #273, .T. ) ;
#332 = SURFACE_SIDE_STYLE ('',( #58 ) ) ;
#333 = CIRCLE ( 'NONE', #196, 2.100000000000000100 ) ;
#334 = CIRCLE ( 'NONE', #199, 2.999999999999998700 ) ;
#335 = DIRECTION ( 'NONE',  ( 0.0000000000000000000, 0.0000000000000000000, -1.000000000000000000 ) ) ;
#336 =( NAMED_UNIT ( * ) SI_UNIT ( $, .STERADIAN. ) SOLID_ANGLE_UNIT ( ) );
#337 =( LENGTH_UNIT ( ) NAMED_UNIT ( * ) SI_UNIT ( .MILLI., .METRE. ) );
#338 = CYLINDRICAL_SURFACE ( 'NONE', #223, 5.000000000000000000 ) ;
#339 = DIRECTION ( 'NONE',  ( -0.0000000000000000000, -1.000000000000000000, -0.0000000000000000000 ) ) ;
#340 = DIRECTION ( 'NONE',  ( 0.0000000000000000000, 0.0000000000000000000, -1.000000000000000000 ) ) ;
#341 =( NAMED_UNIT ( * ) PLANE_ANGLE_UNIT ( ) SI_UNIT ( $, .RADIAN. ) );
#342 = CARTESIAN_POINT ( 'NONE',  ( 0.0000000000000000000, 4.800000000000000700, 0.0000000000000000000 ) ) ;
#343 = FACE_OUTER_BOUND ( 'NONE', #97, .T. ) ;
#344 = DIRECTION ( 'NONE',  ( -0.0000000000000000000, -1.000000000000000000, -0.0000000000000000000 ) ) ;
#345 = DIRECTION ( 'NONE',  ( 0.0000000000000000000, 0.0000000000000000000, -1.000000000000000000 ) ) ;
#346 = DIRECTION ( 'NONE',  ( 0.0000000000000000000, 0.0000000000000000000, -1.000000000000000000 ) ) ;
#347 = CARTESIAN_POINT ( 'NONE',  ( 0.0000000000000000000, 4.300000000000004300, 0.0000000000000000000 ) ) ;
#348 = FACE_OUTER_BOUND ( 'NONE', #35, .T. ) ;
#349 = CARTESIAN_POINT ( 'NONE',  ( 0.0000000000000000000, 4.800000000000000700, 0.0000000000000000000 ) ) ;
#350 = DIRECTION ( 'NONE',  ( 0.0000000000000000000, 1.000000000000000000, 0.0000000000000000000 ) ) ;
#351 = DIRECTION ( 'NONE',  ( 0.0000000000000000000, 0.0000000000000000000, -1.000000000000000000 ) ) ;
#352 = PRESENTATION_STYLE_ASSIGNMENT (( #17 ) ) ;
#353 = DIRECTION ( 'NONE',  ( -0.0000000000000000000, -1.000000000000000000, -0.0000000000000000000 ) ) ;
#354 = SURFACE_STYLE_FILL_AREA ( #33 ) ;
#355 = CARTESIAN_POINT ( 'NONE',  ( 0.0000000000000000000, 4.300000000000004300, 0.0000000000000000000 ) ) ;
#356 = DIRECTION ( 'NONE',  ( -0.0000000000000000000, -1.000000000000000000, -0.0000000000000000000 ) ) ;
#357 = ADVANCED_FACE ( 'NONE', ( #175, #207 ), #227, .F. ) ;
#358 = DIRECTION ( 'NONE',  ( 0.0000000000000000000, 0.0000000000000000000, -1.000000000000000000 ) ) ;
#359 = PRESENTATION_STYLE_ASSIGNMENT (( #37 ) ) ;
#360 = DIRECTION ( 'NONE',  ( 0.0000000000000000000, 0.0000000000000000000, -1.000000000000000000 ) ) ;
#361 = ADVANCED_FACE ( 'NONE', ( #192, #217 ), #190, .F. ) ;
#362 = SURFACE_STYLE_FILL_AREA ( #40 ) ;
#363 = COLOUR_RGB ( '',0.6470588235294118000, 0.5137254901960783800, 0.0000000000000000000 ) ;
#364 = CARTESIAN_POINT ( 'NONE',  ( 0.0000000000000000000, 7.800000000000000700, 0.0000000000000000000 ) ) ;
#365 = DIRECTION ( 'NONE',  ( -0.0000000000000000000, -1.000000000000000000, -0.0000000000000000000 ) ) ;
#366 = EDGE_LOOP ( 'NONE', ( #42 ) ) ;
#367 = CARTESIAN_POINT ( 'NONE',  ( 0.0000000000000000000, 19.50000000000000000, 0.0000000000000000000 ) ) ;
#368 = FACE_OUTER_BOUND ( 'NONE', #260, .T. ) ;
#369 = CYLINDRICAL_SURFACE ( 'NONE', #266, 2.399999999999999500 ) ;
#370 = DIRECTION ( 'NONE',  ( 0.0000000000000000000, 0.0000000000000000000, -1.000000000000000000 ) ) ;
#371 = FACE_OUTER_BOUND ( 'NONE', #392, .T. ) ;
#372 = FACE_OUTER_BOUND ( 'NONE', #395, .T. ) ;
#373 = DIRECTION ( 'NONE',  ( 0.0000000000000000000, 0.0000000000000000000, -1.000000000000000000 ) ) ;
#374 = CYLINDRICAL_SURFACE ( 'NONE', #269, 2.100000000000000100 ) ;
#375 = FACE_BOUND ( 'NONE', #290, .T. ) ;
#376 = FACE_OUTER_BOUND ( 'NONE', #11, .T. ) ;
#377 = DIRECTION ( 'NONE',  ( 0.0000000000000000000, 0.0000000000000000000, -1.000000000000000000 ) ) ;
#378 = DIRECTION ( 'NONE',  ( -0.0000000000000000000, -1.000000000000000000, -0.0000000000000000000 ) ) ;
#379 = FACE_OUTER_BOUND ( 'NONE', #311, .T. ) ;
#380 = CARTESIAN_POINT ( 'NONE',  ( 0.0000000000000000000, 0.0000000000000000000, 0.0000000000000000000 ) ) ;
#381 = COLOUR_RGB ( '',0.6274509803921568500, 0.4196078431372549100, 0.1882352941176470600 ) ;
#382 = DIRECTION ( 'NONE',  ( -0.0000000000000000000, -1.000000000000000000, -0.0000000000000000000 ) ) ;
#383 = FACE_OUTER_BOUND ( 'NONE', #258, .T. ) ;
#384 = FACE_OUTER_BOUND ( 'NONE', #291, .T. ) ;
#385 = FACE_BOUND ( 'NONE', #94, .T. ) ;
#386 = FACE_OUTER_BOUND ( 'NONE', #96, .T. ) ;
#387 = FACE_BOUND ( 'NONE', #281, .T. ) ;
#388 = DIRECTION ( 'NONE',  ( 0.0000000000000000000, 0.0000000000000000000, -1.000000000000000000 ) ) ;
#389 = FACE_OUTER_BOUND ( 'NONE', #304, .T. ) ;
#390 = DIRECTION ( 'NONE',  ( -0.0000000000000000000, -1.000000000000000000, -0.0000000000000000000 ) ) ;
#391 = FACE_OUTER_BOUND ( 'NONE', #366, .T. ) ;
#392 = EDGE_LOOP ( 'NONE', ( #253 ) ) ;
#393 = CYLINDRICAL_SURFACE ( 'NONE', #313, 2.100000000000000100 ) ;
#394 = DIRECTION ( 'NONE',  ( 0.0000000000000000000, 0.0000000000000000000, -1.000000000000000000 ) ) ;
#395 = EDGE_LOOP ( 'NONE', ( #148 ) ) ;
#396 = EDGE_LOOP ( 'NONE', ( #12 ) ) ;
#397 = DIRECTION ( 'NONE',  ( -0.0000000000000000000, -1.000000000000000000, -0.0000000000000000000 ) ) ;
#398 = EDGE_LOOP ( 'NONE', ( #71 ) ) ;
#399 = CARTESIAN_POINT ( 'NONE',  ( 0.0000000000000000000, 20.00000000000000000, 0.0000000000000000000 ) ) ;
#400 = CARTESIAN_POINT ( 'NONE',  ( 0.0000000000000000000, 9.799999999999998900, 0.0000000000000000000 ) ) ;
#401 = DIRECTION ( 'NONE',  ( -0.0000000000000000000, -1.000000000000000000, -0.0000000000000000000 ) ) ;
#402 = FACE_OUTER_BOUND ( 'NONE', #99, .T. ) ;
#403 = PRESENTATION_STYLE_ASSIGNMENT (( #314 ) ) ;
#404 = DIRECTION ( 'NONE',  ( -0.0000000000000000000, -1.000000000000000000, -0.0000000000000000000 ) ) ;
ENDSEC;
END-ISO-10303-21;
