ISO-10303-21;
HEADER;
FILE_DESCRIPTION (( 'STEP AP214' ),
    '1' );
FILE_NAME ('1044-A2P-A.STEP',
    '2013-05-15T14:41:17',
    ( '3DAssist' ),
    ( '' ),
    'SwSTEP 2.0',
    'SolidWorks 2013',
    '' );
FILE_SCHEMA (( 'AUTOMOTIVE_DESIGN' ));
ENDSEC;

DATA;
#1 = VECTOR ( 'NONE', #240, 1000.000000000000000 ) ;
#2 = VECTOR ( 'NONE', #253, 1000.000000000000000 ) ;
#3 = DIRECTION ( 'NONE',  ( -0.0000000000000000000, -1.000000000000000000, -0.0000000000000000000 ) ) ;
#4 = CIRCLE ( 'NONE', #156, 1.500000000000001300 ) ;
#5 = DIRECTION ( 'NONE',  ( 0.0000000000000000000, 1.000000000000000000, -0.0000000000000000000 ) ) ;
#6 = VERTEX_POINT ( 'NONE', #19 ) ;
#7 = CIRCLE ( 'NONE', #147, 8.000000000000000000 ) ;
#8 = ORIENTED_EDGE ( 'NONE', *, *, #128, .F. ) ;
#9 = CIRCLE ( 'NONE', #148, 8.000000000000000000 ) ;
#10 = VECTOR ( 'NONE', #77, 1000.000000000000000 ) ;
#11 = SURFACE_STYLE_FILL_AREA ( #215 ) ;
#12 = ORIENTED_EDGE ( 'NONE', *, *, #243, .T. ) ;
#13 = VERTEX_POINT ( 'NONE', #209 ) ;
#14 = VERTEX_POINT ( 'NONE', #244 ) ;
#15 = ORIENTED_EDGE ( 'NONE', *, *, #239, .T. ) ;
#16 = ORIENTED_EDGE ( 'NONE', *, *, #164, .F. ) ;
#17 = VERTEX_POINT ( 'NONE', #144 ) ;
#18 = ORIENTED_EDGE ( 'NONE', *, *, #196, .F. ) ;
#19 = CARTESIAN_POINT ( 'NONE',  ( 0.0000000000000000000, -2.000000000000000000, -16.50000000000000000 ) ) ;
#20 = ORIENTED_EDGE ( 'NONE', *, *, #208, .T. ) ;
#21 = DIRECTION ( 'NONE',  ( 0.0000000000000000000, 0.0000000000000000000, 1.000000000000000000 ) ) ;
#22 = CARTESIAN_POINT ( 'NONE',  ( -8.000000000000000000, -2.000000000000000000, 18.00000000000000400 ) ) ;
#23 = CARTESIAN_POINT ( 'NONE',  ( -8.000000000000000000, -2.000000000000000000, 0.0000000000000000000 ) ) ;
#24 =( LENGTH_UNIT ( ) NAMED_UNIT ( * ) SI_UNIT ( .MILLI., .METRE. ) );
#25 = CARTESIAN_POINT ( 'NONE',  ( 8.000000000000000000, 2.000000000000000000, -18.00000000000000400 ) ) ;
#26 = CLOSED_SHELL ( 'NONE', ( #72, #71, #87, #86, #74, #76, #90, #83 ) ) ;
#27 = DIRECTION ( 'NONE',  ( -0.0000000000000000000, -1.000000000000000000, -0.0000000000000000000 ) ) ;
#28 = ORIENTED_EDGE ( 'NONE', *, *, #151, .T. ) ;
#29 = CIRCLE ( 'NONE', #152, 8.000000000000000000 ) ;
#30 =( NAMED_UNIT ( * ) SI_UNIT ( $, .STERADIAN. ) SOLID_ANGLE_UNIT ( ) );
#31 = CARTESIAN_POINT ( 'NONE',  ( -8.000000000000000000, 2.000000000000000000, -18.00000000000000400 ) ) ;
#32 = ORIENTED_EDGE ( 'NONE', *, *, #221, .F. ) ;
#33 = DIRECTION ( 'NONE',  ( 0.0000000000000000000, 0.0000000000000000000, -1.000000000000000000 ) ) ;
#34 = DIRECTION ( 'NONE',  ( -1.000000000000000000, 0.0000000000000000000, 0.0000000000000000000 ) ) ;
#35 = FACE_OUTER_BOUND ( 'NONE', #224, .T. ) ;
#36 = DIRECTION ( 'NONE',  ( 0.0000000000000000000, 0.0000000000000000000, 1.000000000000000000 ) ) ;
#37 = DIRECTION ( 'NONE',  ( 0.0000000000000000000, 0.0000000000000000000, 1.000000000000000000 ) ) ;
#38 = CIRCLE ( 'NONE', #174, 1.500000000000001300 ) ;
#39 = ORIENTED_EDGE ( 'NONE', *, *, #245, .F. ) ;
#40 = SURFACE_STYLE_FILL_AREA ( #251 ) ;
#41 =( NAMED_UNIT ( * ) PLANE_ANGLE_UNIT ( ) SI_UNIT ( $, .RADIAN. ) );
#42 = EDGE_LOOP ( 'NONE', ( #18, #75, #103, #39 ) ) ;
#43 = LINE ( 'NONE', #23, #2 ) ;
#44 = ORIENTED_EDGE ( 'NONE', *, *, #221, .T. ) ;
#45 = CIRCLE ( 'NONE', #177, 1.500000000000001300 ) ;
#46 = LINE ( 'NONE', #108, #10 ) ;
#47 = ORIENTED_EDGE ( 'NONE', *, *, #164, .T. ) ;
#48 = ORIENTED_EDGE ( 'NONE', *, *, #187, .T. ) ;
#49 = DIRECTION ( 'NONE',  ( 0.0000000000000000000, 1.000000000000000000, -0.0000000000000000000 ) ) ;
#50 = ORIENTED_EDGE ( 'NONE', *, *, #128, .T. ) ;
#51 = EDGE_LOOP ( 'NONE', ( #150, #12, #85, #79 ) ) ;
#52 = EDGE_LOOP ( 'NONE', ( #110, #270, #179, #50 ) ) ;
#53 = EDGE_LOOP ( 'NONE', ( #81 ) ) ;
#54 = LINE ( 'NONE', #242, #1 ) ;
#55 = ORIENTED_EDGE ( 'NONE', *, *, #130, .F. ) ;
#56 = EDGE_LOOP ( 'NONE', ( #32 ) ) ;
#57 = ORIENTED_EDGE ( 'NONE', *, *, #243, .F. ) ;
#58 = ORIENTED_EDGE ( 'NONE', *, *, #187, .F. ) ;
#59 = VERTEX_POINT ( 'NONE', #149 ) ;
#60 = EDGE_LOOP ( 'NONE', ( #47 ) ) ;
#61 = EDGE_LOOP ( 'NONE', ( #16 ) ) ;
#62 = VECTOR ( 'NONE', #21, 1000.000000000000000 ) ;
#63 = COLOUR_RGB ( '',0.9019607843137255100, 0.8117647058823529400, 0.5725490196078431000 ) ;
#64 = LINE ( 'NONE', #31, #89 ) ;
#65 = DIRECTION ( 'NONE',  ( -0.0000000000000000000, -1.000000000000000000, -0.0000000000000000000 ) ) ;
#66 = CARTESIAN_POINT ( 'NONE',  ( 8.000000000000000000, 2.000000000000000000, 18.00000000000000400 ) ) ;
#67 = CARTESIAN_POINT ( 'NONE',  ( 8.000000000000000000, -2.000000000000000000, -18.00000000000000400 ) ) ;
#68 = SHAPE_DEFINITION_REPRESENTATION ( #118, #213 ) ;
#69 = DIRECTION ( 'NONE',  ( 0.0000000000000000000, 1.000000000000000000, -0.0000000000000000000 ) ) ;
#70 = DIRECTION ( 'NONE',  ( 0.0000000000000000000, 0.0000000000000000000, -1.000000000000000000 ) ) ;
#71 = ADVANCED_FACE ( 'NONE', ( #165 ), #231, .T. ) ;
#72 = ADVANCED_FACE ( 'NONE', ( #35 ), #116, .F. ) ;
#73 = DIRECTION ( 'NONE',  ( 0.0000000000000000000, 0.0000000000000000000, -1.000000000000000000 ) ) ;
#74 = ADVANCED_FACE ( 'NONE', ( #163, #166 ), #199, .F. ) ;
#75 = ORIENTED_EDGE ( 'NONE', *, *, #234, .F. ) ;
#76 = ADVANCED_FACE ( 'NONE', ( #162 ), #181, .T. ) ;
#77 = DIRECTION ( 'NONE',  ( 0.0000000000000000000, 0.0000000000000000000, -1.000000000000000000 ) ) ;
#78 = PRESENTATION_STYLE_ASSIGNMENT (( #142 ) ) ;
#79 = ORIENTED_EDGE ( 'NONE', *, *, #237, .T. ) ;
#80 =( LENGTH_UNIT ( ) NAMED_UNIT ( * ) SI_UNIT ( .MILLI., .METRE. ) );
#81 = ORIENTED_EDGE ( 'NONE', *, *, #151, .F. ) ;
#82 = CARTESIAN_POINT ( 'NONE',  ( 0.0000000000000000000, 2.000000000000000000, -18.00000000000000400 ) ) ;
#83 = ADVANCED_FACE ( 'NONE', ( #230, #168, #175 ), #102, .F. ) ;
#84 = DIRECTION ( 'NONE',  ( 0.0000000000000000000, 0.0000000000000000000, -1.000000000000000000 ) ) ;
#85 = ORIENTED_EDGE ( 'NONE', *, *, #130, .T. ) ;
#86 = ADVANCED_FACE ( 'NONE', ( #219, #197 ), #191, .F. ) ;
#87 = ADVANCED_FACE ( 'NONE', ( #173 ), #134, .F. ) ;
#88 = VERTEX_POINT ( 'NONE', #66 ) ;
#89 = VECTOR ( 'NONE', #115, 1000.000000000000000 ) ;
#90 = ADVANCED_FACE ( 'NONE', ( #189, #192, #171 ), #227, .T. ) ;
#91 = CARTESIAN_POINT ( 'NONE',  ( 0.0000000000000000000, -2.000000000000000000, -18.00000000000000400 ) ) ;
#92 = VECTOR ( 'NONE', #255, 1000.000000000000000 ) ;
#93 = CARTESIAN_POINT ( 'NONE',  ( 0.0000000000000000000, -2.000000000000000000, 18.00000000000000400 ) ) ;
#94 = DIRECTION ( 'NONE',  ( -0.0000000000000000000, -1.000000000000000000, -0.0000000000000000000 ) ) ;
#95 = PRODUCT_DEFINITION_CONTEXT ( 'detailed design', #120, 'design' ) ;
#96 =( NAMED_UNIT ( * ) PLANE_ANGLE_UNIT ( ) SI_UNIT ( $, .RADIAN. ) );
#97 = CIRCLE ( 'NONE', #154, 8.000000000000000000 ) ;
#98 = CARTESIAN_POINT ( 'NONE',  ( 0.0000000000000000000, 0.0000000000000000000, 0.0000000000000000000 ) ) ;
#99 = DIRECTION ( 'NONE',  ( 0.0000000000000000000, 1.000000000000000000, -0.0000000000000000000 ) ) ;
#100 = VERTEX_POINT ( 'NONE', #210 ) ;
#101 = ORIENTED_EDGE ( 'NONE', *, *, #208, .F. ) ;
#102 = PLANE ( 'NONE',  #212 ) ;
#103 = ORIENTED_EDGE ( 'NONE', *, *, #239, .F. ) ;
#104 = CARTESIAN_POINT ( 'NONE',  ( 0.0000000000000000000, 2.000000000000000000, 18.00000000000000400 ) ) ;
#105 = PRODUCT_RELATED_PRODUCT_CATEGORY ( 'part', '', ( #136 ) ) ;
#106 = VERTEX_POINT ( 'NONE', #22 ) ;
#107 = PRODUCT_DEFINITION_FORMATION_WITH_SPECIFIED_SOURCE ( 'ANY', '', #136, .NOT_KNOWN. ) ;
#108 = CARTESIAN_POINT ( 'NONE',  ( 8.000000000000000000, -2.000000000000000000, 0.0000000000000000000 ) ) ;
#109 = DIRECTION ( 'NONE',  ( 0.0000000000000000000, 0.0000000000000000000, 1.000000000000000000 ) ) ;
#110 = ORIENTED_EDGE ( 'NONE', *, *, #234, .T. ) ;
#111 = EDGE_LOOP ( 'NONE', ( #28 ) ) ;
#112 = ORIENTED_EDGE ( 'NONE', *, *, #196, .T. ) ;
#113 = DIRECTION ( 'NONE',  ( 0.0000000000000000000, 0.0000000000000000000, 1.000000000000000000 ) ) ;
#114 = VECTOR ( 'NONE', #33, 1000.000000000000000 ) ;
#115 = DIRECTION ( 'NONE',  ( -0.0000000000000000000, -1.000000000000000000, -0.0000000000000000000 ) ) ;
#116 = PLANE ( 'NONE',  #229 ) ;
#117 = FILL_AREA_STYLE_COLOUR ( '', #63 ) ;
#118 = PRODUCT_DEFINITION_SHAPE ( 'NONE', 'NONE',  #121 ) ;
#119 = APPLICATION_PROTOCOL_DEFINITION ( 'draft international standard', 'automotive_design', 1998, #120 ) ;
#120 = APPLICATION_CONTEXT ( 'automotive_design' ) ;
#121 = PRODUCT_DEFINITION ( 'UNKNOWN', '', #107, #95 ) ;
#122 = PRODUCT_CONTEXT ( 'NONE', #252, 'mechanical' ) ;
#123 = DIRECTION ( 'NONE',  ( 1.000000000000000000, 0.0000000000000000000, 0.0000000000000000000 ) ) ;
#124 = DIRECTION ( 'NONE',  ( 0.0000000000000000000, 0.0000000000000000000, 1.000000000000000000 ) ) ;
#125 = AXIS2_PLACEMENT_3D ( 'NONE', #98, #124, #123 ) ;
#126 = COLOUR_RGB ( '',0.9019607843137255100, 0.8117647058823529400, 0.5725490196078431000 ) ;
#127 =( NAMED_UNIT ( * ) SI_UNIT ( $, .STERADIAN. ) SOLID_ANGLE_UNIT ( ) );
#128 = EDGE_CURVE ( 'NONE', #160, #263, #185, .T. ) ;
#129 = DIRECTION ( 'NONE',  ( 0.0000000000000000000, 0.0000000000000000000, 1.000000000000000000 ) ) ;
#130 = EDGE_CURVE ( 'NONE', #88, #160, #236, .T. ) ;
#131 =( NAMED_UNIT ( * ) PLANE_ANGLE_UNIT ( ) SI_UNIT ( $, .RADIAN. ) );
#132 =( LENGTH_UNIT ( ) NAMED_UNIT ( * ) SI_UNIT ( .MILLI., .METRE. ) );
#133 =( GEOMETRIC_REPRESENTATION_CONTEXT ( 3 ) GLOBAL_UNCERTAINTY_ASSIGNED_CONTEXT ( ( #216 ) ) GLOBAL_UNIT_ASSIGNED_CONTEXT ( ( #132, #131, #127 ) ) REPRESENTATION_CONTEXT ( 'NONE', 'WORKASPACE' ) );
#134 = PLANE ( 'NONE',  #193 ) ;
#135 = MECHANICAL_DESIGN_GEOMETRIC_PRESENTATION_REPRESENTATION (  '', ( #140 ), #133 ) ;
#136 = PRODUCT ( '1044-A2P-A', '1044-A2P-A', '', ( #122 ) ) ;
#137 = PRESENTATION_LAYER_ASSIGNMENT (  '', '', ( #140 ) ) ;
#138 = DIRECTION ( 'NONE',  ( 0.0000000000000000000, 1.000000000000000000, -0.0000000000000000000 ) ) ;
#139 = CARTESIAN_POINT ( 'NONE',  ( 0.0000000000000000000, 2.000000000000000000, 18.00000000000000400 ) ) ;
#140 = STYLED_ITEM ( 'NONE', ( #78 ), #213 ) ;
#141 = ORIENTED_EDGE ( 'NONE', *, *, #155, .T. ) ;
#142 = SURFACE_STYLE_USAGE ( .BOTH. , #146 ) ;
#143 = SURFACE_SIDE_STYLE ('',( #40 ) ) ;
#144 = CARTESIAN_POINT ( 'NONE',  ( -8.000000000000000000, -2.000000000000000000, -18.00000000000000400 ) ) ;
#145 =( GEOMETRIC_REPRESENTATION_CONTEXT ( 3 ) GLOBAL_UNCERTAINTY_ASSIGNED_CONTEXT ( ( #194 ) ) GLOBAL_UNIT_ASSIGNED_CONTEXT ( ( #80, #41, #30 ) ) REPRESENTATION_CONTEXT ( 'NONE', 'WORKASPACE' ) );
#146 = SURFACE_SIDE_STYLE ('',( #11 ) ) ;
#147 = AXIS2_PLACEMENT_3D ( 'NONE', #93, #5, #159 ) ;
#148 = AXIS2_PLACEMENT_3D ( 'NONE', #167, #49, #129 ) ;
#149 = CARTESIAN_POINT ( 'NONE',  ( -8.000000000000000000, 2.000000000000000000, 18.00000000000000400 ) ) ;
#150 = ORIENTED_EDGE ( 'NONE', *, *, #157, .T. ) ;
#151 = EDGE_CURVE ( 'NONE', #14, #14, #190, .T. ) ;
#152 = AXIS2_PLACEMENT_3D ( 'NONE', #205, #178, #176 ) ;
#153 = CARTESIAN_POINT ( 'NONE',  ( 0.0000000000000000000, 2.000000000000000000, 18.00000000000000400 ) ) ;
#154 = AXIS2_PLACEMENT_3D ( 'NONE', #220, #222, #37 ) ;
#155 = EDGE_CURVE ( 'NONE', #6, #6, #45, .T. ) ;
#156 = AXIS2_PLACEMENT_3D ( 'NONE', #206, #254, #36 ) ;
#157 = EDGE_CURVE ( 'NONE', #201, #59, #228, .T. ) ;
#158 =( GEOMETRIC_REPRESENTATION_CONTEXT ( 3 ) GLOBAL_UNCERTAINTY_ASSIGNED_CONTEXT ( ( #200 ) ) GLOBAL_UNIT_ASSIGNED_CONTEXT ( ( #24, #96, #233 ) ) REPRESENTATION_CONTEXT ( 'NONE', 'WORKASPACE' ) );
#159 = DIRECTION ( 'NONE',  ( 0.0000000000000000000, 0.0000000000000000000, 1.000000000000000000 ) ) ;
#160 = VERTEX_POINT ( 'NONE', #257 ) ;
#161 = MECHANICAL_DESIGN_GEOMETRIC_PRESENTATION_REPRESENTATION (  '', ( #172 ), #158 ) ;
#162 = FACE_OUTER_BOUND ( 'NONE', #52, .T. ) ;
#163 = FACE_OUTER_BOUND ( 'NONE', #60, .T. ) ;
#164 = EDGE_CURVE ( 'NONE', #13, #13, #38, .T. ) ;
#165 = FACE_OUTER_BOUND ( 'NONE', #195, .T. ) ;
#166 = FACE_OUTER_BOUND ( 'NONE', #56, .T. ) ;
#167 = CARTESIAN_POINT ( 'NONE',  ( 0.0000000000000000000, 2.000000000000000000, 18.00000000000000400 ) ) ;
#168 = FACE_BOUND ( 'NONE', #226, .T. ) ;
#169 = CARTESIAN_POINT ( 'NONE',  ( 8.000000000000000000, -2.000000000000000000, 18.00000000000000400 ) ) ;
#170 = PRESENTATION_LAYER_ASSIGNMENT (  '', '', ( #172 ) ) ;
#171 = FACE_OUTER_BOUND ( 'NONE', #51, .T. ) ;
#172 = STYLED_ITEM ( 'NONE', ( #211 ), #186 ) ;
#173 = FACE_OUTER_BOUND ( 'NONE', #235, .T. ) ;
#174 = AXIS2_PLACEMENT_3D ( 'NONE', #104, #69, #241 ) ;
#175 = FACE_OUTER_BOUND ( 'NONE', #42, .T. ) ;
#176 = DIRECTION ( 'NONE',  ( 0.0000000000000000000, 0.0000000000000000000, 1.000000000000000000 ) ) ;
#177 = AXIS2_PLACEMENT_3D ( 'NONE', #91, #232, #113 ) ;
#178 = DIRECTION ( 'NONE',  ( 0.0000000000000000000, 1.000000000000000000, -0.0000000000000000000 ) ) ;
#179 = ORIENTED_EDGE ( 'NONE', *, *, #237, .F. ) ;
#180 = VECTOR ( 'NONE', #27, 1000.000000000000000 ) ;
#181 = CYLINDRICAL_SURFACE ( 'NONE', #214, 8.000000000000000000 ) ;
#182 = EDGE_CURVE ( 'NONE', #201, #17, #64, .T. ) ;
#183 = DIRECTION ( 'NONE',  ( 0.0000000000000000000, 0.0000000000000000000, -1.000000000000000000 ) ) ;
#184 = AXIS2_PLACEMENT_3D ( 'NONE', #269, #138, #249 ) ;
#185 = LINE ( 'NONE', #25, #180 ) ;
#186 = MANIFOLD_SOLID_BREP ( 'Boss-Extrude1', #26 ) ;
#187 = EDGE_CURVE ( 'NONE', #88, #274, #250, .T. ) ;
#188 = AXIS2_PLACEMENT_3D ( 'NONE', #256, #261, #264 ) ;
#189 = FACE_BOUND ( 'NONE', #61, .T. ) ;
#190 = CIRCLE ( 'NONE', #188, 1.500000000000001300 ) ;
#191 = CYLINDRICAL_SURFACE ( 'NONE', #203, 1.500000000000001300 ) ;
#192 = FACE_BOUND ( 'NONE', #53, .T. ) ;
#193 = AXIS2_PLACEMENT_3D ( 'NONE', #267, #34, #109 ) ;
#194 = UNCERTAINTY_MEASURE_WITH_UNIT (LENGTH_MEASURE( 1.000000000000000100E-005 ), #80, 'distance_accuracy_value', 'NONE');
#195 = EDGE_LOOP ( 'NONE', ( #238, #58, #57, #20 ) ) ;
#196 = EDGE_CURVE ( 'NONE', #17, #106, #43, .T. ) ;
#197 = FACE_OUTER_BOUND ( 'NONE', #202, .T. ) ;
#198 = ORIENTED_EDGE ( 'NONE', *, *, #157, .F. ) ;
#199 = CYLINDRICAL_SURFACE ( 'NONE', #217, 1.500000000000001300 ) ;
#200 = UNCERTAINTY_MEASURE_WITH_UNIT (LENGTH_MEASURE( 1.000000000000000100E-005 ), #24, 'distance_accuracy_value', 'NONE');
#201 = VERTEX_POINT ( 'NONE', #247 ) ;
#202 = EDGE_LOOP ( 'NONE', ( #207 ) ) ;
#203 = AXIS2_PLACEMENT_3D ( 'NONE', #271, #266, #273 ) ;
#204 = ORIENTED_EDGE ( 'NONE', *, *, #182, .T. ) ;
#205 = CARTESIAN_POINT ( 'NONE',  ( 0.0000000000000000000, 2.000000000000000000, -18.00000000000000400 ) ) ;
#206 = CARTESIAN_POINT ( 'NONE',  ( 0.0000000000000000000, -2.000000000000000000, 18.00000000000000400 ) ) ;
#207 = ORIENTED_EDGE ( 'NONE', *, *, #155, .F. ) ;
#208 = EDGE_CURVE ( 'NONE', #59, #106, #54, .T. ) ;
#209 = CARTESIAN_POINT ( 'NONE',  ( 0.0000000000000000000, 2.000000000000000000, 19.50000000000000400 ) ) ;
#210 = CARTESIAN_POINT ( 'NONE',  ( 0.0000000000000000000, -2.000000000000000000, 19.50000000000000400 ) ) ;
#211 = PRESENTATION_STYLE_ASSIGNMENT (( #258 ) ) ;
#212 = AXIS2_PLACEMENT_3D ( 'NONE', #272, #99, #268 ) ;
#213 = ADVANCED_BREP_SHAPE_REPRESENTATION ( '1044-A2P-A', ( #186, #125 ), #145 ) ;
#214 = AXIS2_PLACEMENT_3D ( 'NONE', #82, #94, #84 ) ;
#215 = FILL_AREA_STYLE ('',( #218 ) ) ;
#216 = UNCERTAINTY_MEASURE_WITH_UNIT (LENGTH_MEASURE( 1.000000000000000100E-005 ), #132, 'distance_accuracy_value', 'NONE');
#217 = AXIS2_PLACEMENT_3D ( 'NONE', #139, #65, #70 ) ;
#218 = FILL_AREA_STYLE_COLOUR ( '', #126 ) ;
#219 = FACE_OUTER_BOUND ( 'NONE', #111, .T. ) ;
#220 = CARTESIAN_POINT ( 'NONE',  ( 0.0000000000000000000, -2.000000000000000000, -18.00000000000000400 ) ) ;
#221 = EDGE_CURVE ( 'NONE', #100, #100, #4, .T. ) ;
#222 = DIRECTION ( 'NONE',  ( 0.0000000000000000000, 1.000000000000000000, -0.0000000000000000000 ) ) ;
#223 = APPLICATION_PROTOCOL_DEFINITION ( 'draft international standard', 'automotive_design', 1998, #252 ) ;
#224 = EDGE_LOOP ( 'NONE', ( #112, #101, #198, #204 ) ) ;
#225 = EDGE_LOOP ( 'NONE', ( #44 ) ) ;
#226 = EDGE_LOOP ( 'NONE', ( #141 ) ) ;
#227 = PLANE ( 'NONE',  #184 ) ;
#228 = LINE ( 'NONE', #259, #62 ) ;
#229 = AXIS2_PLACEMENT_3D ( 'NONE', #262, #246, #183 ) ;
#230 = FACE_BOUND ( 'NONE', #225, .T. ) ;
#231 = CYLINDRICAL_SURFACE ( 'NONE', #265, 8.000000000000000000 ) ;
#232 = DIRECTION ( 'NONE',  ( 0.0000000000000000000, 1.000000000000000000, -0.0000000000000000000 ) ) ;
#233 =( NAMED_UNIT ( * ) SI_UNIT ( $, .STERADIAN. ) SOLID_ANGLE_UNIT ( ) );
#234 = EDGE_CURVE ( 'NONE', #263, #17, #97, .T. ) ;
#235 = EDGE_LOOP ( 'NONE', ( #15, #8, #55, #48 ) ) ;
#236 = LINE ( 'NONE', #248, #114 ) ;
#237 = EDGE_CURVE ( 'NONE', #160, #201, #29, .T. ) ;
#238 = ORIENTED_EDGE ( 'NONE', *, *, #245, .T. ) ;
#239 = EDGE_CURVE ( 'NONE', #274, #263, #46, .T. ) ;
#240 = DIRECTION ( 'NONE',  ( -0.0000000000000000000, -1.000000000000000000, -0.0000000000000000000 ) ) ;
#241 = DIRECTION ( 'NONE',  ( 0.0000000000000000000, 0.0000000000000000000, 1.000000000000000000 ) ) ;
#242 = CARTESIAN_POINT ( 'NONE',  ( -8.000000000000000000, 2.000000000000000000, 18.00000000000000400 ) ) ;
#243 = EDGE_CURVE ( 'NONE', #59, #88, #9, .T. ) ;
#244 = CARTESIAN_POINT ( 'NONE',  ( 0.0000000000000000000, 2.000000000000000000, -16.50000000000000000 ) ) ;
#245 = EDGE_CURVE ( 'NONE', #106, #274, #7, .T. ) ;
#246 = DIRECTION ( 'NONE',  ( 1.000000000000000000, 0.0000000000000000000, 0.0000000000000000000 ) ) ;
#247 = CARTESIAN_POINT ( 'NONE',  ( -8.000000000000000000, 2.000000000000000000, -18.00000000000000400 ) ) ;
#248 = CARTESIAN_POINT ( 'NONE',  ( 8.000000000000000000, 2.000000000000000000, 0.0000000000000000000 ) ) ;
#249 = DIRECTION ( 'NONE',  ( 0.0000000000000000000, 0.0000000000000000000, 1.000000000000000000 ) ) ;
#250 = LINE ( 'NONE', #260, #92 ) ;
#251 = FILL_AREA_STYLE ('',( #117 ) ) ;
#252 = APPLICATION_CONTEXT ( 'automotive_design' ) ;
#253 = DIRECTION ( 'NONE',  ( 0.0000000000000000000, 0.0000000000000000000, 1.000000000000000000 ) ) ;
#254 = DIRECTION ( 'NONE',  ( 0.0000000000000000000, 1.000000000000000000, -0.0000000000000000000 ) ) ;
#255 = DIRECTION ( 'NONE',  ( -0.0000000000000000000, -1.000000000000000000, -0.0000000000000000000 ) ) ;
#256 = CARTESIAN_POINT ( 'NONE',  ( 0.0000000000000000000, 2.000000000000000000, -18.00000000000000400 ) ) ;
#257 = CARTESIAN_POINT ( 'NONE',  ( 8.000000000000000000, 2.000000000000000000, -18.00000000000000400 ) ) ;
#258 = SURFACE_STYLE_USAGE ( .BOTH. , #143 ) ;
#259 = CARTESIAN_POINT ( 'NONE',  ( -8.000000000000000000, 2.000000000000000000, 0.0000000000000000000 ) ) ;
#260 = CARTESIAN_POINT ( 'NONE',  ( 8.000000000000000000, 2.000000000000000000, 18.00000000000000400 ) ) ;
#261 = DIRECTION ( 'NONE',  ( 0.0000000000000000000, 1.000000000000000000, -0.0000000000000000000 ) ) ;
#262 = CARTESIAN_POINT ( 'NONE',  ( -8.000000000000000000, 2.000000000000000000, 0.0000000000000000000 ) ) ;
#263 = VERTEX_POINT ( 'NONE', #67 ) ;
#264 = DIRECTION ( 'NONE',  ( 0.0000000000000000000, 0.0000000000000000000, 1.000000000000000000 ) ) ;
#265 = AXIS2_PLACEMENT_3D ( 'NONE', #153, #3, #73 ) ;
#266 = DIRECTION ( 'NONE',  ( -0.0000000000000000000, -1.000000000000000000, -0.0000000000000000000 ) ) ;
#267 = CARTESIAN_POINT ( 'NONE',  ( 8.000000000000000000, 2.000000000000000000, 0.0000000000000000000 ) ) ;
#268 = DIRECTION ( 'NONE',  ( 0.0000000000000000000, 0.0000000000000000000, 1.000000000000000000 ) ) ;
#269 = CARTESIAN_POINT ( 'NONE',  ( 0.0000000000000000000, 2.000000000000000000, 0.0000000000000000000 ) ) ;
#270 = ORIENTED_EDGE ( 'NONE', *, *, #182, .F. ) ;
#271 = CARTESIAN_POINT ( 'NONE',  ( 0.0000000000000000000, 2.000000000000000000, -18.00000000000000400 ) ) ;
#272 = CARTESIAN_POINT ( 'NONE',  ( 0.0000000000000000000, -2.000000000000000000, 0.0000000000000000000 ) ) ;
#273 = DIRECTION ( 'NONE',  ( 0.0000000000000000000, 0.0000000000000000000, -1.000000000000000000 ) ) ;
#274 = VERTEX_POINT ( 'NONE', #169 ) ;
ENDSEC;
END-ISO-10303-21;
