ISO-10303-21;
HEADER;
FILE_DESCRIPTION (( 'STEP AP214' ),
    '1' );
FILE_NAME ('1012-A2P-A.STEP',
    '2013-05-15T14:38:06',
    ( '3DAssist' ),
    ( '' ),
    'SwSTEP 2.0',
    'SolidWorks 2013',
    '' );
FILE_SCHEMA (( 'AUTOMOTIVE_DESIGN' ));
ENDSEC;

DATA;
#1 = UNCERTAINTY_MEASURE_WITH_UNIT (LENGTH_MEASURE( 1.000000000000000100E-005 ), #41, 'distance_accuracy_value', 'NONE');
#2 = ADVANCED_FACE ( 'NONE', ( #98, #126 ), #91, .T. ) ;
#3 = PRODUCT_DEFINITION_FORMATION_WITH_SPECIFIED_SOURCE ( 'ANY', '', #6, .NOT_KNOWN. ) ;
#4 = ADVANCED_FACE ( 'NONE', ( #95 ), #133, .F. ) ;
#5 =( GEOMETRIC_REPRESENTATION_CONTEXT ( 3 ) GLOBAL_UNCERTAINTY_ASSIGNED_CONTEXT ( ( #1 ) ) GLOBAL_UNIT_ASSIGNED_CONTEXT ( ( #41, #47, #59 ) ) REPRESENTATION_CONTEXT ( 'NONE', 'WORKASPACE' ) );
#6 = PRODUCT ( '1012-A2P-A', '1012-A2P-A', '', ( #70 ) ) ;
#7 =( GEOMETRIC_REPRESENTATION_CONTEXT ( 3 ) GLOBAL_UNCERTAINTY_ASSIGNED_CONTEXT ( ( #20 ) ) GLOBAL_UNIT_ASSIGNED_CONTEXT ( ( #43, #44, #45 ) ) REPRESENTATION_CONTEXT ( 'NONE', 'WORKASPACE' ) );
#8 = AXIS2_PLACEMENT_3D ( 'NONE', #94, #128, #129 ) ;
#9 = EDGE_CURVE ( 'NONE', #68, #68, #93, .T. ) ;
#10 = AXIS2_PLACEMENT_3D ( 'NONE', #82, #80, #89 ) ;
#11 = AXIS2_PLACEMENT_3D ( 'NONE', #71, #74, #76 ) ;
#12 = AXIS2_PLACEMENT_3D ( 'NONE', #116, #111, #107 ) ;
#13 = AXIS2_PLACEMENT_3D ( 'NONE', #120, #124, #114 ) ;
#14 = EDGE_CURVE ( 'NONE', #65, #65, #88, .T. ) ;
#15 = EDGE_CURVE ( 'NONE', #64, #64, #87, .T. ) ;
#16 = ADVANCED_FACE ( 'NONE', ( #97, #85 ), #81, .T. ) ;
#17 = PRODUCT_DEFINITION_SHAPE ( 'NONE', 'NONE',  #21 ) ;
#18 = PRODUCT_RELATED_PRODUCT_CATEGORY ( 'part', '', ( #6 ) ) ;
#19 =( NAMED_UNIT ( * ) PLANE_ANGLE_UNIT ( ) SI_UNIT ( $, .RADIAN. ) );
#20 = UNCERTAINTY_MEASURE_WITH_UNIT (LENGTH_MEASURE( 1.000000000000000100E-005 ), #43, 'distance_accuracy_value', 'NONE');
#21 = PRODUCT_DEFINITION ( 'UNKNOWN', '', #3, #96 ) ;
#22 = AXIS2_PLACEMENT_3D ( 'NONE', #27, #57, #62 ) ;
#23 = ADVANCED_FACE ( 'NONE', ( #92 ), #135, .T. ) ;
#24 = STYLED_ITEM ( 'NONE', ( #54 ), #42 ) ;
#25 = PRESENTATION_LAYER_ASSIGNMENT (  '', '', ( #24 ) ) ;
#26 =( GEOMETRIC_REPRESENTATION_CONTEXT ( 3 ) GLOBAL_UNCERTAINTY_ASSIGNED_CONTEXT ( ( #58 ) ) GLOBAL_UNIT_ASSIGNED_CONTEXT ( ( #32, #19, #36 ) ) REPRESENTATION_CONTEXT ( 'NONE', 'WORKASPACE' ) );
#27 = CARTESIAN_POINT ( 'NONE',  ( 0.0000000000000000000, 0.0000000000000000000, 0.0000000000000000000 ) ) ;
#28 = MECHANICAL_DESIGN_GEOMETRIC_PRESENTATION_REPRESENTATION (  '', ( #33 ), #26 ) ;
#29 = FILL_AREA_STYLE ('',( #136 ) ) ;
#30 = SURFACE_SIDE_STYLE ('',( #77 ) ) ;
#31 = SURFACE_STYLE_USAGE ( .BOTH. , #30 ) ;
#32 =( LENGTH_UNIT ( ) NAMED_UNIT ( * ) SI_UNIT ( .MILLI., .METRE. ) );
#33 = STYLED_ITEM ( 'NONE', ( #78 ), #113 ) ;
#34 = PRESENTATION_LAYER_ASSIGNMENT (  '', '', ( #33 ) ) ;
#35 = AXIS2_PLACEMENT_3D ( 'NONE', #138, #130, #140 ) ;
#36 =( NAMED_UNIT ( * ) SI_UNIT ( $, .STERADIAN. ) SOLID_ANGLE_UNIT ( ) );
#37 = AXIS2_PLACEMENT_3D ( 'NONE', #118, #119, #108 ) ;
#38 = CARTESIAN_POINT ( 'NONE',  ( 3.500000000000003100, 0.0000000000000000000, -168.5000000000000000 ) ) ;
#39 = CARTESIAN_POINT ( 'NONE',  ( 4.000000000000000000, 0.0000000000000000000, -168.0000000000000000 ) ) ;
#40 = FILL_AREA_STYLE_COLOUR ( '', #55 ) ;
#41 =( LENGTH_UNIT ( ) NAMED_UNIT ( * ) SI_UNIT ( .MILLI., .METRE. ) );
#42 = ADVANCED_BREP_SHAPE_REPRESENTATION ( '1012-A2P-A', ( #113, #22 ), #7 ) ;
#43 =( LENGTH_UNIT ( ) NAMED_UNIT ( * ) SI_UNIT ( .MILLI., .METRE. ) );
#44 =( NAMED_UNIT ( * ) PLANE_ANGLE_UNIT ( ) SI_UNIT ( $, .RADIAN. ) );
#45 =( NAMED_UNIT ( * ) SI_UNIT ( $, .STERADIAN. ) SOLID_ANGLE_UNIT ( ) );
#46 = APPLICATION_PROTOCOL_DEFINITION ( 'draft international standard', 'automotive_design', 1998, #48 ) ;
#47 =( NAMED_UNIT ( * ) PLANE_ANGLE_UNIT ( ) SI_UNIT ( $, .RADIAN. ) );
#48 = APPLICATION_CONTEXT ( 'automotive_design' ) ;
#49 = FILL_AREA_STYLE ('',( #40 ) ) ;
#50 = AXIS2_PLACEMENT_3D ( 'NONE', #139, #100, #102 ) ;
#51 = SURFACE_SIDE_STYLE ('',( #67 ) ) ;
#52 = EDGE_CURVE ( 'NONE', #63, #63, #84, .T. ) ;
#53 = SURFACE_STYLE_USAGE ( .BOTH. , #51 ) ;
#54 = PRESENTATION_STYLE_ASSIGNMENT (( #53 ) ) ;
#55 = COLOUR_RGB ( '',0.7529411764705882200, 0.7529411764705882200, 0.7529411764705882200 ) ;
#56 = AXIS2_PLACEMENT_3D ( 'NONE', #104, #106, #109 ) ;
#57 = DIRECTION ( 'NONE',  ( 0.0000000000000000000, 0.0000000000000000000, 1.000000000000000000 ) ) ;
#58 = UNCERTAINTY_MEASURE_WITH_UNIT (LENGTH_MEASURE( 1.000000000000000100E-005 ), #32, 'distance_accuracy_value', 'NONE');
#59 =( NAMED_UNIT ( * ) SI_UNIT ( $, .STERADIAN. ) SOLID_ANGLE_UNIT ( ) );
#60 = APPLICATION_PROTOCOL_DEFINITION ( 'draft international standard', 'automotive_design', 1998, #61 ) ;
#61 = APPLICATION_CONTEXT ( 'automotive_design' ) ;
#62 = DIRECTION ( 'NONE',  ( 1.000000000000000000, 0.0000000000000000000, 0.0000000000000000000 ) ) ;
#63 = VERTEX_POINT ( 'NONE', #39 ) ;
#64 = VERTEX_POINT ( 'NONE', #69 ) ;
#65 = VERTEX_POINT ( 'NONE', #38 ) ;
#66 = SHAPE_DEFINITION_REPRESENTATION ( #17, #42 ) ;
#67 = SURFACE_STYLE_FILL_AREA ( #49 ) ;
#68 = VERTEX_POINT ( 'NONE', #72 ) ;
#69 = CARTESIAN_POINT ( 'NONE',  ( 3.500000000000003100, 0.0000000000000000000, 168.5000000000000000 ) ) ;
#70 = PRODUCT_CONTEXT ( 'NONE', #48, 'mechanical' ) ;
#71 = CARTESIAN_POINT ( 'NONE',  ( 0.0000000000000000000, 0.0000000000000000000, -168.0000000000000000 ) ) ;
#72 = CARTESIAN_POINT ( 'NONE',  ( 4.000000000000000000, 0.0000000000000000000, 168.0000000000000000 ) ) ;
#73 = MECHANICAL_DESIGN_GEOMETRIC_PRESENTATION_REPRESENTATION (  '', ( #24 ), #5 ) ;
#74 = DIRECTION ( 'NONE',  ( -0.0000000000000000000, -0.0000000000000000000, 1.000000000000000000 ) ) ;
#75 = CONICAL_SURFACE ( 'NONE', #35, 4.000000000000000000, 0.7853981633974447300 ) ;
#76 = DIRECTION ( 'NONE',  ( 1.000000000000000000, 0.0000000000000000000, 0.0000000000000000000 ) ) ;
#77 = SURFACE_STYLE_FILL_AREA ( #29 ) ;
#78 = PRESENTATION_STYLE_ASSIGNMENT (( #31 ) ) ;
#79 = FACE_OUTER_BOUND ( 'NONE', #103, .T. ) ;
#80 = DIRECTION ( 'NONE',  ( 0.0000000000000000000, 0.0000000000000000000, 1.000000000000000000 ) ) ;
#81 = CONICAL_SURFACE ( 'NONE', #37, 3.500000000000003100, 0.7853981633974447300 ) ;
#82 = CARTESIAN_POINT ( 'NONE',  ( 0.0000000000000000000, 0.0000000000000000000, -168.5000000000000000 ) ) ;
#83 = ADVANCED_FACE ( 'NONE', ( #86, #79 ), #75, .T. ) ;
#84 = CIRCLE ( 'NONE', #11, 4.000000000000000000 ) ;
#85 = FACE_BOUND ( 'NONE', #105, .T. ) ;
#86 = FACE_BOUND ( 'NONE', #115, .T. ) ;
#87 = CIRCLE ( 'NONE', #13, 3.500000000000003100 ) ;
#88 = CIRCLE ( 'NONE', #12, 3.500000000000003100 ) ;
#89 = DIRECTION ( 'NONE',  ( 1.000000000000000000, 0.0000000000000000000, 0.0000000000000000000 ) ) ;
#90 = COLOUR_RGB ( '',0.7529411764705882200, 0.7529411764705882200, 0.7529411764705882200 ) ;
#91 = CYLINDRICAL_SURFACE ( 'NONE', #10, 4.000000000000000000 ) ;
#92 = FACE_OUTER_BOUND ( 'NONE', #123, .T. ) ;
#93 = CIRCLE ( 'NONE', #56, 4.000000000000000000 ) ;
#94 = CARTESIAN_POINT ( 'NONE',  ( 0.0000000000000000000, 0.0000000000000000000, 168.5000000000000000 ) ) ;
#95 = FACE_OUTER_BOUND ( 'NONE', #122, .T. ) ;
#96 = PRODUCT_DEFINITION_CONTEXT ( 'detailed design', #61, 'design' ) ;
#97 = FACE_OUTER_BOUND ( 'NONE', #101, .T. ) ;
#98 = FACE_OUTER_BOUND ( 'NONE', #137, .T. ) ;
#99 = ORIENTED_EDGE ( 'NONE', *, *, #52, .T. ) ;
#100 = DIRECTION ( 'NONE',  ( 0.0000000000000000000, 0.0000000000000000000, 1.000000000000000000 ) ) ;
#101 = EDGE_LOOP ( 'NONE', ( #134 ) ) ;
#102 = DIRECTION ( 'NONE',  ( 1.000000000000000000, 0.0000000000000000000, -0.0000000000000000000 ) ) ;
#103 = EDGE_LOOP ( 'NONE', ( #110 ) ) ;
#104 = CARTESIAN_POINT ( 'NONE',  ( 0.0000000000000000000, 0.0000000000000000000, 168.0000000000000000 ) ) ;
#105 = EDGE_LOOP ( 'NONE', ( #127 ) ) ;
#106 = DIRECTION ( 'NONE',  ( 0.0000000000000000000, 0.0000000000000000000, -1.000000000000000000 ) ) ;
#107 = DIRECTION ( 'NONE',  ( 1.000000000000000000, 0.0000000000000000000, 0.0000000000000000000 ) ) ;
#108 = DIRECTION ( 'NONE',  ( -1.000000000000000000, 0.0000000000000000000, 0.0000000000000000000 ) ) ;
#109 = DIRECTION ( 'NONE',  ( 1.000000000000000000, 0.0000000000000000000, 0.0000000000000000000 ) ) ;
#110 = ORIENTED_EDGE ( 'NONE', *, *, #52, .F. ) ;
#111 = DIRECTION ( 'NONE',  ( -0.0000000000000000000, -0.0000000000000000000, -1.000000000000000000 ) ) ;
#112 = ORIENTED_EDGE ( 'NONE', *, *, #14, .F. ) ;
#113 = MANIFOLD_SOLID_BREP ( 'Chamfer1', #117 ) ;
#114 = DIRECTION ( 'NONE',  ( 1.000000000000000000, 0.0000000000000000000, 0.0000000000000000000 ) ) ;
#115 = EDGE_LOOP ( 'NONE', ( #112 ) ) ;
#116 = CARTESIAN_POINT ( 'NONE',  ( 0.0000000000000000000, 0.0000000000000000000, -168.5000000000000000 ) ) ;
#117 = CLOSED_SHELL ( 'NONE', ( #2, #4, #23, #83, #16 ) ) ;
#118 = CARTESIAN_POINT ( 'NONE',  ( 0.0000000000000000000, 0.0000000000000000000, 168.5000000000000000 ) ) ;
#119 = DIRECTION ( 'NONE',  ( 0.0000000000000000000, 0.0000000000000000000, -1.000000000000000000 ) ) ;
#120 = CARTESIAN_POINT ( 'NONE',  ( 0.0000000000000000000, 0.0000000000000000000, 168.5000000000000000 ) ) ;
#121 = ORIENTED_EDGE ( 'NONE', *, *, #14, .T. ) ;
#122 = EDGE_LOOP ( 'NONE', ( #121 ) ) ;
#123 = EDGE_LOOP ( 'NONE', ( #132 ) ) ;
#124 = DIRECTION ( 'NONE',  ( 0.0000000000000000000, 0.0000000000000000000, 1.000000000000000000 ) ) ;
#125 = EDGE_LOOP ( 'NONE', ( #131 ) ) ;
#126 = FACE_OUTER_BOUND ( 'NONE', #125, .T. ) ;
#127 = ORIENTED_EDGE ( 'NONE', *, *, #15, .F. ) ;
#128 = DIRECTION ( 'NONE',  ( 0.0000000000000000000, 0.0000000000000000000, 1.000000000000000000 ) ) ;
#129 = DIRECTION ( 'NONE',  ( 1.000000000000000000, 0.0000000000000000000, -0.0000000000000000000 ) ) ;
#130 = DIRECTION ( 'NONE',  ( -0.0000000000000000000, -0.0000000000000000000, 1.000000000000000000 ) ) ;
#131 = ORIENTED_EDGE ( 'NONE', *, *, #9, .T. ) ;
#132 = ORIENTED_EDGE ( 'NONE', *, *, #15, .T. ) ;
#133 = PLANE ( 'NONE',  #50 ) ;
#134 = ORIENTED_EDGE ( 'NONE', *, *, #9, .F. ) ;
#135 = PLANE ( 'NONE',  #8 ) ;
#136 = FILL_AREA_STYLE_COLOUR ( '', #90 ) ;
#137 = EDGE_LOOP ( 'NONE', ( #99 ) ) ;
#138 = CARTESIAN_POINT ( 'NONE',  ( 0.0000000000000000000, 0.0000000000000000000, -168.0000000000000000 ) ) ;
#139 = CARTESIAN_POINT ( 'NONE',  ( 0.0000000000000000000, 0.0000000000000000000, -168.5000000000000000 ) ) ;
#140 = DIRECTION ( 'NONE',  ( 1.000000000000000000, 0.0000000000000000000, 0.0000000000000000000 ) ) ;
ENDSEC;
END-ISO-10303-21;
