ISO-10303-21;
HEADER;
FILE_DESCRIPTION (( 'STEP AP214' ),
    '1' );
FILE_NAME ('1011-A2P-A.STEP',
    '2013-05-15T14:38:12',
    ( '3DAssist' ),
    ( '' ),
    'SwSTEP 2.0',
    'SolidWorks 2013',
    '' );
FILE_SCHEMA (( 'AUTOMOTIVE_DESIGN' ));
ENDSEC;

DATA;
#1 = DIRECTION ( 'NONE',  ( -1.000000000000000000, 0.0000000000000000000, 0.0000000000000000000 ) ) ;
#2 = DIRECTION ( 'NONE',  ( 1.000000000000000000, 0.0000000000000000000, 0.0000000000000000000 ) ) ;
#3 = EDGE_LOOP ( 'NONE', ( #7 ) ) ;
#4 = CIRCLE ( 'NONE', #113, 4.000000000000000000 ) ;
#5 = CONICAL_SURFACE ( 'NONE', #133, 4.000000000000000000, 0.7853981633974171900 ) ;
#6 = CLOSED_SHELL ( 'NONE', ( #138, #85, #120, #22, #46 ) ) ;
#7 = ORIENTED_EDGE ( 'NONE', *, *, #71, .T. ) ;
#8 = EDGE_LOOP ( 'NONE', ( #55 ) ) ;
#9 = SURFACE_SIDE_STYLE ('',( #38 ) ) ;
#10 = DIRECTION ( 'NONE',  ( 0.0000000000000000000, 0.0000000000000000000, 1.000000000000000000 ) ) ;
#11 = DIRECTION ( 'NONE',  ( 1.000000000000000000, 0.0000000000000000000, 0.0000000000000000000 ) ) ;
#12 = CARTESIAN_POINT ( 'NONE',  ( 0.0000000000000000000, 0.0000000000000000000, -174.0000000000000000 ) ) ;
#13 = APPLICATION_CONTEXT ( 'automotive_design' ) ;
#14 = COLOUR_RGB ( '',0.7529411764705882200, 0.7529411764705882200, 0.7529411764705882200 ) ;
#15 = PRESENTATION_STYLE_ASSIGNMENT (( #75 ) ) ;
#16 = DIRECTION ( 'NONE',  ( 0.0000000000000000000, 0.0000000000000000000, -1.000000000000000000 ) ) ;
#17 = VERTEX_POINT ( 'NONE', #77 ) ;
#18 = CARTESIAN_POINT ( 'NONE',  ( 0.0000000000000000000, 0.0000000000000000000, 174.0000000000000000 ) ) ;
#19 = VERTEX_POINT ( 'NONE', #129 ) ;
#20 = VERTEX_POINT ( 'NONE', #95 ) ;
#21 = SHAPE_DEFINITION_REPRESENTATION ( #87, #100 ) ;
#22 = ADVANCED_FACE ( 'NONE', ( #76, #47 ), #5, .T. ) ;
#23 = DIRECTION ( 'NONE',  ( -0.0000000000000000000, -0.0000000000000000000, -1.000000000000000000 ) ) ;
#24 = FACE_OUTER_BOUND ( 'NONE', #3, .T. ) ;
#25 = SURFACE_STYLE_FILL_AREA ( #136 ) ;
#26 = CYLINDRICAL_SURFACE ( 'NONE', #92, 4.000000000000000000 ) ;
#27 = VERTEX_POINT ( 'NONE', #121 ) ;
#28 = MANIFOLD_SOLID_BREP ( 'Chamfer1', #6 ) ;
#29 = CIRCLE ( 'NONE', #104, 3.500000000000031100 ) ;
#30 = PLANE ( 'NONE',  #108 ) ;
#31 = CONICAL_SURFACE ( 'NONE', #116, 3.500000000000031100, 0.7853981633974725900 ) ;
#32 = FACE_OUTER_BOUND ( 'NONE', #51, .T. ) ;
#33 = CIRCLE ( 'NONE', #115, 4.000000000000000000 ) ;
#34 = CIRCLE ( 'NONE', #110, 3.499999999999947600 ) ;
#35 = PRODUCT_DEFINITION_CONTEXT ( 'detailed design', #13, 'design' ) ;
#36 = CARTESIAN_POINT ( 'NONE',  ( 0.0000000000000000000, 0.0000000000000000000, -173.4999999999999100 ) ) ;
#37 = PRESENTATION_STYLE_ASSIGNMENT (( #57 ) ) ;
#38 = SURFACE_STYLE_FILL_AREA ( #45 ) ;
#39 = FACE_OUTER_BOUND ( 'NONE', #58, .T. ) ;
#40 = DIRECTION ( 'NONE',  ( 0.0000000000000000000, 0.0000000000000000000, 1.000000000000000000 ) ) ;
#41 = FACE_BOUND ( 'NONE', #72, .T. ) ;
#42 = FACE_OUTER_BOUND ( 'NONE', #63, .T. ) ;
#43 = FACE_OUTER_BOUND ( 'NONE', #53, .T. ) ;
#44 = COLOUR_RGB ( '',0.7529411764705882200, 0.7529411764705882200, 0.7529411764705882200 ) ;
#45 = FILL_AREA_STYLE ('',( #111 ) ) ;
#46 = ADVANCED_FACE ( 'NONE', ( #42, #41 ), #31, .T. ) ;
#47 = FACE_OUTER_BOUND ( 'NONE', #50, .T. ) ;
#48 = ORIENTED_EDGE ( 'NONE', *, *, #71, .F. ) ;
#49 = ORIENTED_EDGE ( 'NONE', *, *, #94, .T. ) ;
#50 = EDGE_LOOP ( 'NONE', ( #56 ) ) ;
#51 = EDGE_LOOP ( 'NONE', ( #60 ) ) ;
#52 = PLANE ( 'NONE',  #103 ) ;
#53 = EDGE_LOOP ( 'NONE', ( #49 ) ) ;
#54 = ORIENTED_EDGE ( 'NONE', *, *, #130, .F. ) ;
#55 = ORIENTED_EDGE ( 'NONE', *, *, #94, .F. ) ;
#56 = ORIENTED_EDGE ( 'NONE', *, *, #79, .F. ) ;
#57 = SURFACE_STYLE_USAGE ( .BOTH. , #9 ) ;
#58 = EDGE_LOOP ( 'NONE', ( #59 ) ) ;
#59 = ORIENTED_EDGE ( 'NONE', *, *, #79, .T. ) ;
#60 = ORIENTED_EDGE ( 'NONE', *, *, #130, .T. ) ;
#61 =( NAMED_UNIT ( * ) SI_UNIT ( $, .STERADIAN. ) SOLID_ANGLE_UNIT ( ) );
#62 = DIRECTION ( 'NONE',  ( 0.0000000000000000000, 0.0000000000000000000, 1.000000000000000000 ) ) ;
#63 = EDGE_LOOP ( 'NONE', ( #48 ) ) ;
#64 =( LENGTH_UNIT ( ) NAMED_UNIT ( * ) SI_UNIT ( .MILLI., .METRE. ) );
#65 = CARTESIAN_POINT ( 'NONE',  ( 0.0000000000000000000, 0.0000000000000000000, 174.0000000000000000 ) ) ;
#66 =( NAMED_UNIT ( * ) PLANE_ANGLE_UNIT ( ) SI_UNIT ( $, .RADIAN. ) );
#67 = PRODUCT_DEFINITION_FORMATION_WITH_SPECIFIED_SOURCE ( 'ANY', '', #91, .NOT_KNOWN. ) ;
#68 = DIRECTION ( 'NONE',  ( 0.0000000000000000000, 0.0000000000000000000, -1.000000000000000000 ) ) ;
#69 =( LENGTH_UNIT ( ) NAMED_UNIT ( * ) SI_UNIT ( .MILLI., .METRE. ) );
#70 = DIRECTION ( 'NONE',  ( 1.000000000000000000, 0.0000000000000000000, -0.0000000000000000000 ) ) ;
#71 = EDGE_CURVE ( 'NONE', #27, #27, #33, .T. ) ;
#72 = EDGE_LOOP ( 'NONE', ( #54 ) ) ;
#73 = PRODUCT_DEFINITION ( 'UNKNOWN', '', #67, #35 ) ;
#74 = AXIS2_PLACEMENT_3D ( 'NONE', #97, #40, #11 ) ;
#75 = SURFACE_STYLE_USAGE ( .BOTH. , #99 ) ;
#76 = FACE_BOUND ( 'NONE', #8, .T. ) ;
#77 = CARTESIAN_POINT ( 'NONE',  ( 4.000000000000000000, 0.0000000000000000000, -173.4999999999999100 ) ) ;
#78 = DIRECTION ( 'NONE',  ( 1.000000000000000000, 0.0000000000000000000, 0.0000000000000000000 ) ) ;
#79 = EDGE_CURVE ( 'NONE', #17, #17, #4, .T. ) ;
#80 =( GEOMETRIC_REPRESENTATION_CONTEXT ( 3 ) GLOBAL_UNCERTAINTY_ASSIGNED_CONTEXT ( ( #131 ) ) GLOBAL_UNIT_ASSIGNED_CONTEXT ( ( #64, #132, #98 ) ) REPRESENTATION_CONTEXT ( 'NONE', 'WORKASPACE' ) );
#81 = CARTESIAN_POINT ( 'NONE',  ( 0.0000000000000000000, 0.0000000000000000000, -174.0000000000000000 ) ) ;
#82 = APPLICATION_PROTOCOL_DEFINITION ( 'draft international standard', 'automotive_design', 1998, #137 ) ;
#83 = MECHANICAL_DESIGN_GEOMETRIC_PRESENTATION_REPRESENTATION (  '', ( #90 ), #80 ) ;
#84 = UNCERTAINTY_MEASURE_WITH_UNIT (LENGTH_MEASURE( 1.000000000000000100E-005 ), #124, 'distance_accuracy_value', 'NONE');
#85 = ADVANCED_FACE ( 'NONE', ( #43 ), #30, .F. ) ;
#86 = DIRECTION ( 'NONE',  ( 1.000000000000000000, 0.0000000000000000000, -0.0000000000000000000 ) ) ;
#87 = PRODUCT_DEFINITION_SHAPE ( 'NONE', 'NONE',  #73 ) ;
#88 = PRESENTATION_LAYER_ASSIGNMENT (  '', '', ( #90 ) ) ;
#89 = DIRECTION ( 'NONE',  ( -0.0000000000000000000, -0.0000000000000000000, 1.000000000000000000 ) ) ;
#90 = STYLED_ITEM ( 'NONE', ( #15 ), #100 ) ;
#91 = PRODUCT ( '1011-A2P-A', '1011-A2P-A', '', ( #101 ) ) ;
#92 = AXIS2_PLACEMENT_3D ( 'NONE', #81, #10, #2 ) ;
#93 =( GEOMETRIC_REPRESENTATION_CONTEXT ( 3 ) GLOBAL_UNCERTAINTY_ASSIGNED_CONTEXT ( ( #122 ) ) GLOBAL_UNIT_ASSIGNED_CONTEXT ( ( #69, #128, #61 ) ) REPRESENTATION_CONTEXT ( 'NONE', 'WORKASPACE' ) );
#94 = EDGE_CURVE ( 'NONE', #19, #19, #34, .T. ) ;
#95 = CARTESIAN_POINT ( 'NONE',  ( 3.500000000000031100, 0.0000000000000000000, 174.0000000000000000 ) ) ;
#96 = FILL_AREA_STYLE_COLOUR ( '', #14 ) ;
#97 = CARTESIAN_POINT ( 'NONE',  ( 0.0000000000000000000, 0.0000000000000000000, 0.0000000000000000000 ) ) ;
#98 =( NAMED_UNIT ( * ) SI_UNIT ( $, .STERADIAN. ) SOLID_ANGLE_UNIT ( ) );
#99 = SURFACE_SIDE_STYLE ('',( #25 ) ) ;
#100 = ADVANCED_BREP_SHAPE_REPRESENTATION ( '1011-A2P-A', ( #28, #74 ), #93 ) ;
#101 = PRODUCT_CONTEXT ( 'NONE', #137, 'mechanical' ) ;
#102 = DIRECTION ( 'NONE',  ( 0.0000000000000000000, 0.0000000000000000000, 1.000000000000000000 ) ) ;
#103 = AXIS2_PLACEMENT_3D ( 'NONE', #65, #102, #70 ) ;
#104 = AXIS2_PLACEMENT_3D ( 'NONE', #18, #62, #78 ) ;
#105 = CARTESIAN_POINT ( 'NONE',  ( 0.0000000000000000000, 0.0000000000000000000, -173.4999999999999100 ) ) ;
#106 = APPLICATION_PROTOCOL_DEFINITION ( 'draft international standard', 'automotive_design', 1998, #13 ) ;
#107 = DIRECTION ( 'NONE',  ( -0.0000000000000000000, -0.0000000000000000000, 1.000000000000000000 ) ) ;
#108 = AXIS2_PLACEMENT_3D ( 'NONE', #12, #119, #86 ) ;
#109 = PRODUCT_RELATED_PRODUCT_CATEGORY ( 'part', '', ( #91 ) ) ;
#110 = AXIS2_PLACEMENT_3D ( 'NONE', #112, #23, #114 ) ;
#111 = FILL_AREA_STYLE_COLOUR ( '', #44 ) ;
#112 = CARTESIAN_POINT ( 'NONE',  ( 0.0000000000000000000, 0.0000000000000000000, -174.0000000000000000 ) ) ;
#113 = AXIS2_PLACEMENT_3D ( 'NONE', #36, #107, #139 ) ;
#114 = DIRECTION ( 'NONE',  ( 1.000000000000000000, 0.0000000000000000000, 0.0000000000000000000 ) ) ;
#115 = AXIS2_PLACEMENT_3D ( 'NONE', #126, #68, #135 ) ;
#116 = AXIS2_PLACEMENT_3D ( 'NONE', #140, #16, #1 ) ;
#117 = DIRECTION ( 'NONE',  ( 1.000000000000000000, 0.0000000000000000000, 0.0000000000000000000 ) ) ;
#118 =( GEOMETRIC_REPRESENTATION_CONTEXT ( 3 ) GLOBAL_UNCERTAINTY_ASSIGNED_CONTEXT ( ( #84 ) ) GLOBAL_UNIT_ASSIGNED_CONTEXT ( ( #124, #66, #134 ) ) REPRESENTATION_CONTEXT ( 'NONE', 'WORKASPACE' ) );
#119 = DIRECTION ( 'NONE',  ( 0.0000000000000000000, 0.0000000000000000000, 1.000000000000000000 ) ) ;
#120 = ADVANCED_FACE ( 'NONE', ( #32 ), #52, .T. ) ;
#121 = CARTESIAN_POINT ( 'NONE',  ( 4.000000000000000000, 0.0000000000000000000, 173.5000000000000600 ) ) ;
#122 = UNCERTAINTY_MEASURE_WITH_UNIT (LENGTH_MEASURE( 1.000000000000000100E-005 ), #69, 'distance_accuracy_value', 'NONE');
#123 = MECHANICAL_DESIGN_GEOMETRIC_PRESENTATION_REPRESENTATION (  '', ( #127 ), #118 ) ;
#124 =( LENGTH_UNIT ( ) NAMED_UNIT ( * ) SI_UNIT ( .MILLI., .METRE. ) );
#125 = PRESENTATION_LAYER_ASSIGNMENT (  '', '', ( #127 ) ) ;
#126 = CARTESIAN_POINT ( 'NONE',  ( 0.0000000000000000000, 0.0000000000000000000, 173.5000000000000600 ) ) ;
#127 = STYLED_ITEM ( 'NONE', ( #37 ), #28 ) ;
#128 =( NAMED_UNIT ( * ) PLANE_ANGLE_UNIT ( ) SI_UNIT ( $, .RADIAN. ) );
#129 = CARTESIAN_POINT ( 'NONE',  ( 3.499999999999947600, 0.0000000000000000000, -174.0000000000000000 ) ) ;
#130 = EDGE_CURVE ( 'NONE', #20, #20, #29, .T. ) ;
#131 = UNCERTAINTY_MEASURE_WITH_UNIT (LENGTH_MEASURE( 1.000000000000000100E-005 ), #64, 'distance_accuracy_value', 'NONE');
#132 =( NAMED_UNIT ( * ) PLANE_ANGLE_UNIT ( ) SI_UNIT ( $, .RADIAN. ) );
#133 = AXIS2_PLACEMENT_3D ( 'NONE', #105, #89, #117 ) ;
#134 =( NAMED_UNIT ( * ) SI_UNIT ( $, .STERADIAN. ) SOLID_ANGLE_UNIT ( ) );
#135 = DIRECTION ( 'NONE',  ( 1.000000000000000000, 0.0000000000000000000, 0.0000000000000000000 ) ) ;
#136 = FILL_AREA_STYLE ('',( #96 ) ) ;
#137 = APPLICATION_CONTEXT ( 'automotive_design' ) ;
#138 = ADVANCED_FACE ( 'NONE', ( #39, #24 ), #26, .T. ) ;
#139 = DIRECTION ( 'NONE',  ( 1.000000000000000000, 0.0000000000000000000, 0.0000000000000000000 ) ) ;
#140 = CARTESIAN_POINT ( 'NONE',  ( 0.0000000000000000000, 0.0000000000000000000, 174.0000000000000000 ) ) ;
ENDSEC;
END-ISO-10303-21;
