ISO-10303-21;
HEADER;
FILE_DESCRIPTION(('STEP AP214'),'1');
FILE_NAME('U:/UM2/1348_ISO_7380_M3x4_A2_(x4)/1348 Bolt M3x4.step','2014-03-27T11:12:40',(' '),(' '),'Spatial InterOp 3D',' ',' ');
FILE_SCHEMA(('automotive_design'));
ENDSEC;
DATA;
#1=MECHANICAL_DESIGN_GEOMETRIC_PRESENTATION_REPRESENTATION(' ',(#10,#11,#12,#13,#14,#15,#16,#17,#18,#19,#20,#21,#22,#23,#24),#6);
#2=PRODUCT_DEFINITION_CONTEXT('',#25,'design');
#3=APPLICATION_PROTOCOL_DEFINITION('INTERNATIONAL STANDARD','automotive_design',1994,#25);
#4=PRODUCT_CATEGORY_RELATIONSHIP('NONE','NONE',#26,#27);
#5=SHAPE_DEFINITION_REPRESENTATION(#28,#29);
#6= (GEOMETRIC_REPRESENTATION_CONTEXT(3)GLOBAL_UNCERTAINTY_ASSIGNED_CONTEXT((#32))GLOBAL_UNIT_ASSIGNED_CONTEXT((#34,#35,#36))REPRESENTATION_CONTEXT('NONE','WORKSPACE'));
#10=STYLED_ITEM('',(#38),#39);
#11=STYLED_ITEM('',(#40),#41);
#12=STYLED_ITEM('',(#42),#43);
#13=STYLED_ITEM('',(#44),#45);
#14=STYLED_ITEM('',(#46),#47);
#15=STYLED_ITEM('',(#48),#49);
#16=STYLED_ITEM('',(#50),#51);
#17=STYLED_ITEM('',(#52),#53);
#18=STYLED_ITEM('',(#54),#55);
#19=STYLED_ITEM('',(#56),#57);
#20=STYLED_ITEM('',(#58),#59);
#21=STYLED_ITEM('',(#60),#61);
#22=STYLED_ITEM('',(#62),#63);
#23=STYLED_ITEM('',(#64),#65);
#24=STYLED_ITEM('',(#66),#67);
#25=APPLICATION_CONTEXT(' ');
#26=PRODUCT_CATEGORY('part','NONE');
#27=PRODUCT_RELATED_PRODUCT_CATEGORY('detail',' ',(#68));
#28=PRODUCT_DEFINITION_SHAPE('NONE','NONE',#69);
#29=ADVANCED_BREP_SHAPE_REPRESENTATION('1',(#55,#70),#6);
#32=UNCERTAINTY_MEASURE_WITH_UNIT(LENGTH_MEASURE(1.0E-008),#34,'','');
#34= (CONVERSION_BASED_UNIT('METRE',#73)LENGTH_UNIT()NAMED_UNIT(#76));
#35= (NAMED_UNIT(#78)PLANE_ANGLE_UNIT()SI_UNIT($,.RADIAN.));
#36= (NAMED_UNIT(#78)SOLID_ANGLE_UNIT()SI_UNIT($,.STERADIAN.));
#38=PRESENTATION_STYLE_ASSIGNMENT((#84));
#39=ADVANCED_FACE('0:51',(#85),#86,.F.);
#40=PRESENTATION_STYLE_ASSIGNMENT((#87));
#41=ADVANCED_FACE('0:39',(#88),#89,.T.);
#42=PRESENTATION_STYLE_ASSIGNMENT((#90));
#43=ADVANCED_FACE('0:57',(#91),#92,.T.);
#44=PRESENTATION_STYLE_ASSIGNMENT((#93));
#45=ADVANCED_FACE('',(#94),#95,.T.);
#46=PRESENTATION_STYLE_ASSIGNMENT((#96));
#47=ADVANCED_FACE('0:33',(#97),#98,.F.);
#48=PRESENTATION_STYLE_ASSIGNMENT((#99));
#49=ADVANCED_FACE('0:36',(#100),#101,.F.);
#50=PRESENTATION_STYLE_ASSIGNMENT((#102));
#51=ADVANCED_FACE('',(#103),#104,.T.);
#52=PRESENTATION_STYLE_ASSIGNMENT((#105));
#53=ADVANCED_FACE('0:30',(#106,#107),#108,.F.);
#54=PRESENTATION_STYLE_ASSIGNMENT((#109));
#55=MANIFOLD_SOLID_BREP('1',#110);
#56=PRESENTATION_STYLE_ASSIGNMENT((#111));
#57=ADVANCED_FACE('0:48',(#112),#113,.F.);
#58=PRESENTATION_STYLE_ASSIGNMENT((#114));
#59=ADVANCED_FACE('0:54',(#115),#116,.F.);
#60=PRESENTATION_STYLE_ASSIGNMENT((#117));
#61=ADVANCED_FACE('0:27',(#118),#119,.T.);
#62=PRESENTATION_STYLE_ASSIGNMENT((#120));
#63=ADVANCED_FACE('0:45',(#121),#122,.F.);
#64=PRESENTATION_STYLE_ASSIGNMENT((#123));
#65=ADVANCED_FACE('0:24',(#124,#125),#126,.F.);
#66=PRESENTATION_STYLE_ASSIGNMENT((#127));
#67=ADVANCED_FACE('0:42',(#128),#129,.F.);
#68=PRODUCT('1','1','PART-1-DESC',(#130));
#69=PRODUCT_DEFINITION('NONE','NONE',#131,#2);
#70=AXIS2_PLACEMENT_3D('',#132,#133,#134);
#73=LENGTH_MEASURE_WITH_UNIT(LENGTH_MEASURE(1.0),#135);
#76=DIMENSIONAL_EXPONENTS(1.0,0.0,0.0,0.0,0.0,0.0,0.0);
#78=DIMENSIONAL_EXPONENTS(0.0,0.0,0.0,0.0,0.0,0.0,0.0);
#84=SURFACE_STYLE_USAGE(.BOTH.,#136);
#85=FACE_OUTER_BOUND('',#137,.T.);
#86=PLANE('',#138);
#87=SURFACE_STYLE_USAGE(.BOTH.,#139);
#88=FACE_OUTER_BOUND('',#140,.T.);
#89=CYLINDRICAL_SURFACE('',#141,0.0015);
#90=SURFACE_STYLE_USAGE(.BOTH.,#142);
#91=FACE_OUTER_BOUND('',#143,.T.);
#92=PLANE('',#144);
#93=SURFACE_STYLE_USAGE(.BOTH.,#145);
#94=FACE_OUTER_BOUND('',#146,.T.);
#95=CYLINDRICAL_SURFACE('',#147,0.0015);
#96=SURFACE_STYLE_USAGE(.BOTH.,#148);
#97=FACE_OUTER_BOUND('',#149,.T.);
#98=PLANE('',#150);
#99=SURFACE_STYLE_USAGE(.BOTH.,#151);
#100=FACE_OUTER_BOUND('',#152,.T.);
#101=PLANE('',#153);
#102=SURFACE_STYLE_USAGE(.BOTH.,#154);
#103=FACE_OUTER_BOUND('',#155,.T.);
#104=SPHERICAL_SURFACE('',#156,0.00279047130496019);
#105=SURFACE_STYLE_USAGE(.BOTH.,#157);
#106=FACE_BOUND('',#158,.T.);
#107=FACE_OUTER_BOUND('',#159,.T.);
#108=PLANE('',#160);
#109=SURFACE_STYLE_USAGE(.BOTH.,#161);
#110=CLOSED_SHELL('',(#45,#51,#65,#61,#53,#47,#49,#41,#67,#63,#57,#39,#59,#43));
#111=SURFACE_STYLE_USAGE(.BOTH.,#162);
#112=FACE_OUTER_BOUND('',#163,.T.);
#113=PLANE('',#164);
#114=SURFACE_STYLE_USAGE(.BOTH.,#165);
#115=FACE_OUTER_BOUND('',#166,.T.);
#116=PLANE('',#167);
#117=SURFACE_STYLE_USAGE(.BOTH.,#168);
#118=FACE_OUTER_BOUND('',#169,.T.);
#119=SPHERICAL_SURFACE('',#170,0.00279047130496019);
#120=SURFACE_STYLE_USAGE(.BOTH.,#171);
#121=FACE_OUTER_BOUND('',#172,.T.);
#122=PLANE('',#173);
#123=SURFACE_STYLE_USAGE(.BOTH.,#174);
#124=FACE_BOUND('',#175,.T.);
#125=FACE_OUTER_BOUND('',#176,.T.);
#126=PLANE('',#177);
#127=SURFACE_STYLE_USAGE(.BOTH.,#178);
#128=FACE_OUTER_BOUND('',#179,.T.);
#129=PLANE('',#180);
#130=PRODUCT_CONTEXT('',#25,'mechanical');
#131=PRODUCT_DEFINITION_FORMATION_WITH_SPECIFIED_SOURCE(' ','NONE',#68,.NOT_KNOWN.);
#132=CARTESIAN_POINT('',(0.0,0.0,0.0));
#133=DIRECTION('',(0.0,0.0,1.0));
#134=DIRECTION('',(1.0,0.0,0.0));
#135= (NAMED_UNIT(#76)LENGTH_UNIT()SI_UNIT($,.METRE.));
#136=SURFACE_SIDE_STYLE('',(#182));
#137=EDGE_LOOP('',(#183,#184,#185,#186));
#138=AXIS2_PLACEMENT_3D('',#187,#188,#189);
#139=SURFACE_SIDE_STYLE('',(#190));
#140=EDGE_LOOP('',(#191,#192,#193,#194));
#141=AXIS2_PLACEMENT_3D('',#195,#196,#197);
#142=SURFACE_SIDE_STYLE('',(#198));
#143=EDGE_LOOP('',(#199,#200,#201,#202,#203,#204));
#144=AXIS2_PLACEMENT_3D('',#205,#206,#207);
#145=SURFACE_SIDE_STYLE('',(#208));
#146=EDGE_LOOP('',(#209,#210,#211,#212));
#147=AXIS2_PLACEMENT_3D('',#213,#214,#215);
#148=SURFACE_SIDE_STYLE('',(#216));
#149=EDGE_LOOP('',(#217,#218,#219,#220));
#150=AXIS2_PLACEMENT_3D('',#221,#222,#223);
#151=SURFACE_SIDE_STYLE('',(#224));
#152=EDGE_LOOP('',(#225,#226));
#153=AXIS2_PLACEMENT_3D('',#227,#228,#229);
#154=SURFACE_SIDE_STYLE('',(#230));
#155=EDGE_LOOP('',(#231,#232,#233,#234,#235,#236));
#156=AXIS2_PLACEMENT_3D('',#237,#238,#239);
#157=SURFACE_SIDE_STYLE('',(#240));
#158=EDGE_LOOP('',(#241,#242,#243,#244,#245,#246));
#159=EDGE_LOOP('',(#247,#248,#249));
#160=AXIS2_PLACEMENT_3D('',#250,#251,#252);
#161=SURFACE_SIDE_STYLE('',(#253));
#162=SURFACE_SIDE_STYLE('',(#254));
#163=EDGE_LOOP('',(#255,#256,#257,#258));
#164=AXIS2_PLACEMENT_3D('',#259,#260,#261);
#165=SURFACE_SIDE_STYLE('',(#262));
#166=EDGE_LOOP('',(#263,#264,#265,#266));
#167=AXIS2_PLACEMENT_3D('',#267,#268,#269);
#168=SURFACE_SIDE_STYLE('',(#270));
#169=EDGE_LOOP('',(#271,#272,#273,#274));
#170=AXIS2_PLACEMENT_3D('',#275,#276,#277);
#171=SURFACE_SIDE_STYLE('',(#278));
#172=EDGE_LOOP('',(#279,#280,#281,#282));
#173=AXIS2_PLACEMENT_3D('',#283,#284,#285);
#174=SURFACE_SIDE_STYLE('',(#286));
#175=EDGE_LOOP('',(#287,#288));
#176=EDGE_LOOP('',(#289,#290,#291));
#177=AXIS2_PLACEMENT_3D('',#292,#293,#294);
#178=SURFACE_SIDE_STYLE('',(#295));
#179=EDGE_LOOP('',(#296,#297,#298,#299));
#180=AXIS2_PLACEMENT_3D('',#300,#301,#302);
#182=SURFACE_STYLE_FILL_AREA(#303);
#183=ORIENTED_EDGE('',*,*,#304,.T.);
#184=ORIENTED_EDGE('',*,*,#305,.F.);
#185=ORIENTED_EDGE('',*,*,#306,.F.);
#186=ORIENTED_EDGE('',*,*,#307,.T.);
#187=CARTESIAN_POINT('',(0.000577350269189626,0.0042,-0.001));
#188=DIRECTION('',(1.87789324842145E-016,0.0,-1.0));
#189=DIRECTION('',(-1.0,0.0,-1.87789324842145E-016));
#190=SURFACE_STYLE_FILL_AREA(#308);
#191=ORIENTED_EDGE('',*,*,#309,.T.);
#192=ORIENTED_EDGE('',*,*,#310,.T.);
#193=ORIENTED_EDGE('',*,*,#311,.T.);
#194=ORIENTED_EDGE('',*,*,#312,.F.);
#195=CARTESIAN_POINT('',(0.0,0.0,0.0));
#196=DIRECTION('',(0.0,1.0,0.0));
#197=DIRECTION('',(0.0,0.0,-1.0));
#198=SURFACE_STYLE_FILL_AREA(#313);
#199=ORIENTED_EDGE('',*,*,#314,.T.);
#200=ORIENTED_EDGE('',*,*,#315,.T.);
#201=ORIENTED_EDGE('',*,*,#306,.T.);
#202=ORIENTED_EDGE('',*,*,#316,.T.);
#203=ORIENTED_EDGE('',*,*,#317,.T.);
#204=ORIENTED_EDGE('',*,*,#318,.T.);
#205=CARTESIAN_POINT('',(0.0,0.0042,0.0));
#206=DIRECTION('',(0.0,1.0,0.0));
#207=DIRECTION('',(0.0,-0.0,1.0));
#208=SURFACE_STYLE_FILL_AREA(#319);
#209=ORIENTED_EDGE('',*,*,#309,.F.);
#210=ORIENTED_EDGE('',*,*,#320,.F.);
#211=ORIENTED_EDGE('',*,*,#311,.F.);
#212=ORIENTED_EDGE('',*,*,#321,.T.);
#213=CARTESIAN_POINT('',(0.0,0.0,0.0));
#214=DIRECTION('',(0.0,1.0,0.0));
#215=DIRECTION('',(0.0,0.0,-1.0));
#216=SURFACE_STYLE_FILL_AREA(#322);
#217=ORIENTED_EDGE('',*,*,#323,.T.);
#218=ORIENTED_EDGE('',*,*,#324,.F.);
#219=ORIENTED_EDGE('',*,*,#314,.F.);
#220=ORIENTED_EDGE('',*,*,#325,.T.);
#221=CARTESIAN_POINT('',(0.000577350269189626,0.0042,0.001));
#222=DIRECTION('',(0.866025403784439,0.0,0.5));
#223=DIRECTION('',(0.5,0.0,-0.866025403784439));
#224=SURFACE_STYLE_FILL_AREA(#326);
#225=ORIENTED_EDGE('',*,*,#312,.T.);
#226=ORIENTED_EDGE('',*,*,#320,.T.);
#227=CARTESIAN_POINT('',(0.0,-9.18485099360515E-020,0.0));
#228=DIRECTION('',(0.0,1.0,0.0));
#229=DIRECTION('',(0.0,-0.0,1.0));
#230=SURFACE_STYLE_FILL_AREA(#327);
#231=ORIENTED_EDGE('',*,*,#328,.F.);
#232=ORIENTED_EDGE('',*,*,#329,.F.);
#233=ORIENTED_EDGE('',*,*,#330,.F.);
#234=ORIENTED_EDGE('',*,*,#331,.F.);
#235=ORIENTED_EDGE('',*,*,#332,.T.);
#236=ORIENTED_EDGE('',*,*,#333,.T.);
#237=CARTESIAN_POINT('',(0.0,0.00352647058823529,0.0));
#238=DIRECTION('',(0.0,-1.0,-0.0));
#239=DIRECTION('',(-1.0,0.0,0.0));
#240=SURFACE_STYLE_FILL_AREA(#334);
#241=ORIENTED_EDGE('',*,*,#335,.F.);
#242=ORIENTED_EDGE('',*,*,#323,.F.);
#243=ORIENTED_EDGE('',*,*,#336,.F.);
#244=ORIENTED_EDGE('',*,*,#337,.F.);
#245=ORIENTED_EDGE('',*,*,#338,.F.);
#246=ORIENTED_EDGE('',*,*,#304,.F.);
#247=ORIENTED_EDGE('',*,*,#333,.F.);
#248=ORIENTED_EDGE('',*,*,#332,.F.);
#249=ORIENTED_EDGE('',*,*,#339,.F.);
#250=CARTESIAN_POINT('',(-0.00175,0.0057,0.0));
#251=DIRECTION('',(0.0,-1.0,0.0));
#252=DIRECTION('',(0.0,0.0,-1.0));
#253=SURFACE_STYLE_FILL_AREA(#340);
#254=SURFACE_STYLE_FILL_AREA(#341);
#255=ORIENTED_EDGE('',*,*,#338,.T.);
#256=ORIENTED_EDGE('',*,*,#342,.F.);
#257=ORIENTED_EDGE('',*,*,#316,.F.);
#258=ORIENTED_EDGE('',*,*,#305,.T.);
#259=CARTESIAN_POINT('',(-0.000577350269189626,0.0042,-0.001));
#260=DIRECTION('',(-0.866025403784439,0.0,-0.5));
#261=DIRECTION('',(-0.5,0.0,0.866025403784439));
#262=SURFACE_STYLE_FILL_AREA(#343);
#263=ORIENTED_EDGE('',*,*,#335,.T.);
#264=ORIENTED_EDGE('',*,*,#307,.F.);
#265=ORIENTED_EDGE('',*,*,#315,.F.);
#266=ORIENTED_EDGE('',*,*,#324,.T.);
#267=CARTESIAN_POINT('',(0.00115470053837925,0.0042,-2.16840434497101E-019));
#268=DIRECTION('',(0.866025403784439,0.0,-0.5));
#269=DIRECTION('',(-0.5,0.0,-0.866025403784439));
#270=SURFACE_STYLE_FILL_AREA(#344);
#271=ORIENTED_EDGE('',*,*,#328,.T.);
#272=ORIENTED_EDGE('',*,*,#339,.T.);
#273=ORIENTED_EDGE('',*,*,#331,.T.);
#274=ORIENTED_EDGE('',*,*,#345,.F.);
#275=CARTESIAN_POINT('',(0.0,0.00352647058823529,0.0));
#276=DIRECTION('',(0.0,-1.0,-0.0));
#277=DIRECTION('',(-1.0,0.0,0.0));
#278=SURFACE_STYLE_FILL_AREA(#346);
#279=ORIENTED_EDGE('',*,*,#337,.T.);
#280=ORIENTED_EDGE('',*,*,#347,.F.);
#281=ORIENTED_EDGE('',*,*,#317,.F.);
#282=ORIENTED_EDGE('',*,*,#342,.T.);
#283=CARTESIAN_POINT('',(-0.00115470053837925,0.0042,-1.10114283143059E-019));
#284=DIRECTION('',(-0.866025403784439,0.0,0.5));
#285=DIRECTION('',(0.5,0.0,0.866025403784439));
#286=SURFACE_STYLE_FILL_AREA(#348);
#287=ORIENTED_EDGE('',*,*,#310,.F.);
#288=ORIENTED_EDGE('',*,*,#321,.F.);
#289=ORIENTED_EDGE('',*,*,#329,.T.);
#290=ORIENTED_EDGE('',*,*,#345,.T.);
#291=ORIENTED_EDGE('',*,*,#330,.T.);
#292=CARTESIAN_POINT('',(-0.0015,0.004,0.0));
#293=DIRECTION('',(0.0,1.0,0.0));
#294=DIRECTION('',(0.0,-0.0,1.0));
#295=SURFACE_STYLE_FILL_AREA(#349);
#296=ORIENTED_EDGE('',*,*,#336,.T.);
#297=ORIENTED_EDGE('',*,*,#325,.F.);
#298=ORIENTED_EDGE('',*,*,#318,.F.);
#299=ORIENTED_EDGE('',*,*,#347,.T.);
#300=CARTESIAN_POINT('',(-0.000577350269189625,0.0042,0.001));
#301=DIRECTION('',(-0.0,0.0,1.0));
#302=DIRECTION('',(1.0,0.0,0.0));
#303=FILL_AREA_STYLE('',(#350));
#304=EDGE_CURVE('',#351,#352,#353,.T.);
#305=EDGE_CURVE('',#354,#352,#355,.T.);
#306=EDGE_CURVE('',#356,#354,#357,.T.);
#307=EDGE_CURVE('',#356,#351,#358,.T.);
#308=FILL_AREA_STYLE('',(#359));
#309=EDGE_CURVE('',#360,#361,#362,.T.);
#310=EDGE_CURVE('',#361,#363,#364,.T.);
#311=EDGE_CURVE('',#363,#365,#366,.T.);
#312=EDGE_CURVE('',#360,#365,#367,.T.);
#313=FILL_AREA_STYLE('',(#368));
#314=EDGE_CURVE('',#369,#370,#371,.T.);
#315=EDGE_CURVE('',#370,#356,#372,.T.);
#316=EDGE_CURVE('',#354,#373,#374,.T.);
#317=EDGE_CURVE('',#373,#375,#376,.T.);
#318=EDGE_CURVE('',#375,#369,#377,.T.);
#319=FILL_AREA_STYLE('',(#378));
#320=EDGE_CURVE('',#365,#360,#379,.T.);
#321=EDGE_CURVE('',#363,#361,#380,.T.);
#322=FILL_AREA_STYLE('',(#381));
#323=EDGE_CURVE('',#382,#383,#384,.T.);
#324=EDGE_CURVE('',#370,#383,#385,.T.);
#325=EDGE_CURVE('',#369,#382,#386,.T.);
#326=FILL_AREA_STYLE('',(#387));
#327=FILL_AREA_STYLE('',(#388));
#328=EDGE_CURVE('',#389,#390,#391,.T.);
#329=EDGE_CURVE('',#392,#389,#393,.T.);
#330=EDGE_CURVE('',#394,#392,#395,.T.);
#331=EDGE_CURVE('',#396,#394,#397,.T.);
#332=EDGE_CURVE('',#396,#398,#399,.T.);
#333=EDGE_CURVE('',#398,#390,#400,.T.);
#334=FILL_AREA_STYLE('',(#401));
#335=EDGE_CURVE('',#383,#351,#402,.T.);
#336=EDGE_CURVE('',#403,#382,#404,.T.);
#337=EDGE_CURVE('',#405,#403,#406,.T.);
#338=EDGE_CURVE('',#352,#405,#407,.T.);
#339=EDGE_CURVE('',#390,#396,#408,.T.);
#340=FILL_AREA_STYLE('',(#409));
#341=FILL_AREA_STYLE('',(#410));
#342=EDGE_CURVE('',#373,#405,#411,.T.);
#343=FILL_AREA_STYLE('',(#412));
#344=FILL_AREA_STYLE('',(#413));
#345=EDGE_CURVE('',#389,#394,#414,.T.);
#346=FILL_AREA_STYLE('',(#415));
#347=EDGE_CURVE('',#375,#403,#416,.T.);
#348=FILL_AREA_STYLE('',(#417));
#349=FILL_AREA_STYLE('',(#418));
#350=FILL_AREA_STYLE_COLOUR('',#419);
#351=VERTEX_POINT('',#420);
#352=VERTEX_POINT('',#421);
#353=LINE('',#422,#423);
#354=VERTEX_POINT('',#424);
#355=LINE('',#425,#426);
#356=VERTEX_POINT('',#427);
#357=LINE('',#428,#429);
#358=LINE('',#430,#431);
#359=FILL_AREA_STYLE_COLOUR('',#432);
#360=VERTEX_POINT('',#433);
#361=VERTEX_POINT('',#434);
#362=LINE('',#435,#436);
#363=VERTEX_POINT('',#437);
#364=CIRCLE('',#438,0.0015);
#365=VERTEX_POINT('',#439);
#366=LINE('',#440,#441);
#367=CIRCLE('',#442,0.0015);
#368=FILL_AREA_STYLE_COLOUR('',#443);
#369=VERTEX_POINT('',#444);
#370=VERTEX_POINT('',#445);
#371=LINE('',#446,#447);
#372=LINE('',#448,#449);
#373=VERTEX_POINT('',#450);
#374=LINE('',#451,#452);
#375=VERTEX_POINT('',#453);
#376=LINE('',#454,#455);
#377=LINE('',#456,#457);
#378=FILL_AREA_STYLE_COLOUR('',#458);
#379=CIRCLE('',#459,0.0015);
#380=CIRCLE('',#460,0.0015);
#381=FILL_AREA_STYLE_COLOUR('',#461);
#382=VERTEX_POINT('',#462);
#383=VERTEX_POINT('',#463);
#384=LINE('',#464,#465);
#385=LINE('',#466,#467);
#386=LINE('',#468,#469);
#387=FILL_AREA_STYLE_COLOUR('',#470);
#388=FILL_AREA_STYLE_COLOUR('',#471);
#389=VERTEX_POINT('',#472);
#390=VERTEX_POINT('',#473);
#391=CIRCLE('',#474,0.00279047130496019);
#392=VERTEX_POINT('',#475);
#393=CIRCLE('',#476,0.00275);
#394=VERTEX_POINT('',#477);
#395=CIRCLE('',#478,0.00275);
#396=VERTEX_POINT('',#479);
#397=CIRCLE('',#480,0.00279047130496019);
#398=VERTEX_POINT('',#481);
#399=CIRCLE('',#482,0.00175);
#400=CIRCLE('',#483,0.00175);
#401=FILL_AREA_STYLE_COLOUR('',#484);
#402=LINE('',#485,#486);
#403=VERTEX_POINT('',#487);
#404=LINE('',#488,#489);
#405=VERTEX_POINT('',#490);
#406=LINE('',#491,#492);
#407=LINE('',#493,#494);
#408=CIRCLE('',#495,0.00175);
#409=FILL_AREA_STYLE_COLOUR('',#496);
#410=FILL_AREA_STYLE_COLOUR('',#497);
#411=LINE('',#498,#499);
#412=FILL_AREA_STYLE_COLOUR('',#500);
#413=FILL_AREA_STYLE_COLOUR('',#501);
#414=CIRCLE('',#502,0.00275);
#415=FILL_AREA_STYLE_COLOUR('',#503);
#416=LINE('',#504,#505);
#417=FILL_AREA_STYLE_COLOUR('',#506);
#418=FILL_AREA_STYLE_COLOUR('',#507);
#419=COLOUR_RGB('',0.560784339904785,0.631372570991516,0.686274528503418);
#420=CARTESIAN_POINT('',(0.000577350269189626,0.0057,-0.001));
#421=CARTESIAN_POINT('',(-0.000577350269189626,0.0057,-0.001));
#422=CARTESIAN_POINT('',(0.000577350269189626,0.0057,-0.001));
#423=VECTOR('',#508,1.0);
#424=CARTESIAN_POINT('',(-0.000577350269189626,0.0042,-0.001));
#425=CARTESIAN_POINT('',(-0.000577350269189626,0.0042,-0.001));
#426=VECTOR('',#509,1.0);
#427=CARTESIAN_POINT('',(0.000577350269189626,0.0042,-0.001));
#428=CARTESIAN_POINT('',(0.000577350269189626,0.0042,-0.001));
#429=VECTOR('',#510,1.0);
#430=CARTESIAN_POINT('',(0.000577350269189626,0.0042,-0.001));
#431=VECTOR('',#511,1.0);
#432=COLOUR_RGB('',0.560784339904785,0.631372570991516,0.686274528503418);
#433=CARTESIAN_POINT('',(0.0,-1.83697019872103E-019,-0.0015));
#434=CARTESIAN_POINT('',(0.0,0.004,-0.0015));
#435=CARTESIAN_POINT('',(1.83697019872103E-019,0.0,-0.0015));
#436=VECTOR('',#512,1.0);
#437=CARTESIAN_POINT('',(-1.83697019872103E-019,0.004,0.0015));
#438=AXIS2_PLACEMENT_3D('',#513,#514,#515);
#439=CARTESIAN_POINT('',(-1.83697019872103E-019,0.0,0.0015));
#440=CARTESIAN_POINT('',(-1.83697019872103E-019,0.0,0.0015));
#441=VECTOR('',#516,1.0);
#442=AXIS2_PLACEMENT_3D('',#517,#518,#519);
#443=COLOUR_RGB('',0.560784339904785,0.631372570991516,0.686274528503418);
#444=CARTESIAN_POINT('',(0.000577350269189626,0.0042,0.001));
#445=CARTESIAN_POINT('',(0.00115470053837925,0.0042,-2.16840434497101E-019));
#446=CARTESIAN_POINT('',(0.000577350269189626,0.0042,0.001));
#447=VECTOR('',#520,1.0);
#448=CARTESIAN_POINT('',(0.00115470053837925,0.0042,-2.16840434497101E-019));
#449=VECTOR('',#521,1.0);
#450=CARTESIAN_POINT('',(-0.00115470053837925,0.0042,-1.10114283143059E-019));
#451=CARTESIAN_POINT('',(-0.000577350269189626,0.0042,-0.001));
#452=VECTOR('',#522,1.0);
#453=CARTESIAN_POINT('',(-0.000577350269189625,0.0042,0.001));
#454=CARTESIAN_POINT('',(-0.00115470053837925,0.0042,-1.10114283143059E-019));
#455=VECTOR('',#523,1.0);
#456=CARTESIAN_POINT('',(-0.000577350269189625,0.0042,0.001));
#457=VECTOR('',#524,1.0);
#458=COLOUR_RGB('',0.560784339904785,0.631372570991516,0.686274528503418);
#459=AXIS2_PLACEMENT_3D('',#525,#526,#527);
#460=AXIS2_PLACEMENT_3D('',#528,#529,#530);
#461=COLOUR_RGB('',0.560784339904785,0.631372570991516,0.686274528503418);
#462=CARTESIAN_POINT('',(0.000577350269189626,0.0057,0.001));
#463=CARTESIAN_POINT('',(0.00115470053837925,0.0057,-4.33680868994202E-019));
#464=CARTESIAN_POINT('',(0.000577350269189626,0.0057,0.001));
#465=VECTOR('',#531,1.0);
#466=CARTESIAN_POINT('',(0.00115470053837925,0.0042,-2.16840434497101E-019));
#467=VECTOR('',#532,1.0);
#468=CARTESIAN_POINT('',(0.000577350269189626,0.0042,0.001));
#469=VECTOR('',#533,1.0);
#470=COLOUR_RGB('',0.560784339904785,0.631372570991516,0.686274528503418);
#471=COLOUR_RGB('',0.560784339904785,0.631372570991516,0.686274528503418);
#472=CARTESIAN_POINT('',(0.00275,0.004,-3.36777869765522E-019));
#473=CARTESIAN_POINT('',(0.00175,0.0057,-2.14313189850787E-019));
#474=AXIS2_PLACEMENT_3D('',#534,#535,#536);
#475=CARTESIAN_POINT('',(0.0,0.004,-0.00275));
#476=AXIS2_PLACEMENT_3D('',#537,#538,#539);
#477=CARTESIAN_POINT('',(-0.00275,0.004,3.36777869765522E-019));
#478=AXIS2_PLACEMENT_3D('',#540,#541,#542);
#479=CARTESIAN_POINT('',(-0.00175,0.0057,2.14313189850787E-019));
#480=AXIS2_PLACEMENT_3D('',#543,#544,#545);
#481=CARTESIAN_POINT('',(0.0,0.0057,-0.00175));
#482=AXIS2_PLACEMENT_3D('',#546,#547,#548);
#483=AXIS2_PLACEMENT_3D('',#549,#550,#551);
#484=COLOUR_RGB('',0.560784339904785,0.631372570991516,0.686274528503418);
#485=CARTESIAN_POINT('',(0.00115470053837925,0.0057,-2.16840434497101E-019));
#486=VECTOR('',#552,1.0);
#487=CARTESIAN_POINT('',(-0.000577350269189625,0.0057,0.001));
#488=CARTESIAN_POINT('',(-0.000577350269189625,0.0057,0.001));
#489=VECTOR('',#553,1.0);
#490=CARTESIAN_POINT('',(-0.00115470053837925,0.0057,-1.10114283143059E-019));
#491=CARTESIAN_POINT('',(-0.00115470053837925,0.0057,-1.10114283143059E-019));
#492=VECTOR('',#554,1.0);
#493=CARTESIAN_POINT('',(-0.000577350269189626,0.0057,-0.001));
#494=VECTOR('',#555,1.0);
#495=AXIS2_PLACEMENT_3D('',#556,#557,#558);
#496=COLOUR_RGB('',0.560784339904785,0.631372570991516,0.686274528503418);
#497=COLOUR_RGB('',0.560784339904785,0.631372570991516,0.686274528503418);
#498=CARTESIAN_POINT('',(-0.00115470053837925,0.0042,-1.10114283143059E-019));
#499=VECTOR('',#559,1.0);
#500=COLOUR_RGB('',0.560784339904785,0.631372570991516,0.686274528503418);
#501=COLOUR_RGB('',0.560784339904785,0.631372570991516,0.686274528503418);
#502=AXIS2_PLACEMENT_3D('',#560,#561,#562);
#503=COLOUR_RGB('',0.560784339904785,0.631372570991516,0.686274528503418);
#504=CARTESIAN_POINT('',(-0.000577350269189625,0.0042,0.001));
#505=VECTOR('',#563,1.0);
#506=COLOUR_RGB('',0.560784339904785,0.631372570991516,0.686274528503418);
#507=COLOUR_RGB('',0.560784339904785,0.631372570991516,0.686274528503418);
#508=DIRECTION('',(-1.0,0.0,-1.87789324842145E-016));
#509=DIRECTION('',(-0.0,1.0,-0.0));
#510=DIRECTION('',(-1.0,0.0,-1.87789324842145E-016));
#511=DIRECTION('',(-0.0,1.0,-0.0));
#512=DIRECTION('',(-0.0,1.0,0.0));
#513=CARTESIAN_POINT('',(0.0,0.004,0.0));
#514=DIRECTION('',(0.0,-1.0,0.0));
#515=DIRECTION('',(0.0,0.0,-1.0));
#516=DIRECTION('',(-0.0,-1.0,-0.0));
#517=CARTESIAN_POINT('',(0.0,-1.83697019872103E-019,0.0));
#518=DIRECTION('',(0.0,-1.0,0.0));
#519=DIRECTION('',(0.0,0.0,-1.0));
#520=DIRECTION('',(0.5,0.0,-0.866025403784439));
#521=DIRECTION('',(-0.5,0.0,-0.866025403784439));
#522=DIRECTION('',(-0.5,0.0,0.866025403784439));
#523=DIRECTION('',(0.5,0.0,0.866025403784439));
#524=DIRECTION('',(1.0,0.0,0.0));
#525=CARTESIAN_POINT('',(0.0,-1.83697019872103E-019,0.0));
#526=DIRECTION('',(0.0,-1.0,0.0));
#527=DIRECTION('',(0.0,0.0,-1.0));
#528=CARTESIAN_POINT('',(0.0,0.004,0.0));
#529=DIRECTION('',(0.0,-1.0,0.0));
#530=DIRECTION('',(0.0,0.0,-1.0));
#531=DIRECTION('',(0.5,0.0,-0.866025403784439));
#532=DIRECTION('',(-0.0,1.0,-0.0));
#533=DIRECTION('',(-0.0,1.0,-0.0));
#534=CARTESIAN_POINT('',(0.0,0.00352647058823529,0.0));
#535=DIRECTION('',(1.22464679914735E-016,0.0,1.0));
#536=DIRECTION('',(-0.0,1.0,0.0));
#537=CARTESIAN_POINT('',(0.0,0.004,0.0));
#538=DIRECTION('',(0.0,-1.0,0.0));
#539=DIRECTION('',(0.0,0.0,-1.0));
#540=CARTESIAN_POINT('',(0.0,0.004,0.0));
#541=DIRECTION('',(0.0,-1.0,0.0));
#542=DIRECTION('',(0.0,0.0,-1.0));
#543=CARTESIAN_POINT('',(0.0,0.00352647058823529,0.0));
#544=DIRECTION('',(1.22464679914735E-016,0.0,1.0));
#545=DIRECTION('',(-0.0,1.0,0.0));
#546=CARTESIAN_POINT('',(0.0,0.0057,0.0));
#547=DIRECTION('',(0.0,-1.0,0.0));
#548=DIRECTION('',(0.0,0.0,-1.0));
#549=CARTESIAN_POINT('',(0.0,0.0057,0.0));
#550=DIRECTION('',(0.0,-1.0,0.0));
#551=DIRECTION('',(0.0,0.0,-1.0));
#552=DIRECTION('',(-0.5,0.0,-0.866025403784439));
#553=DIRECTION('',(1.0,0.0,0.0));
#554=DIRECTION('',(0.5,0.0,0.866025403784439));
#555=DIRECTION('',(-0.5,0.0,0.866025403784439));
#556=CARTESIAN_POINT('',(0.0,0.0057,0.0));
#557=DIRECTION('',(0.0,-1.0,0.0));
#558=DIRECTION('',(0.0,0.0,-1.0));
#559=DIRECTION('',(-0.0,1.0,-0.0));
#560=CARTESIAN_POINT('',(0.0,0.004,0.0));
#561=DIRECTION('',(0.0,-1.0,0.0));
#562=DIRECTION('',(0.0,0.0,-1.0));
#563=DIRECTION('',(-0.0,1.0,-0.0));
#564=PRESENTATION_LAYER_ASSIGNMENT('Layer0','',(#55));
ENDSEC;
END-ISO-10303-21;
