ISO-10303-21;
HEADER;
FILE_DESCRIPTION (( 'STEP AP214' ),
    '1' );
FILE_NAME ('1288-Z1P-A.STEP',
    '2015-03-23T10:34:32',
    ( '' ),
    ( '' ),
    'SwSTEP 2.0',
    'SolidWorks 2014',
    '' );
FILE_SCHEMA (( 'AUTOMOTIVE_DESIGN' ));
ENDSEC;

DATA;
#1 =( NAMED_UNIT ( * ) SI_UNIT ( $, .STERADIAN. ) SOLID_ANGLE_UNIT ( ) );
#2 = ORIENTED_EDGE ( 'NONE', *, *, #179, .T. ) ;
#3 = AXIS2_PLACEMENT_3D ( 'NONE', #99, #108, #68 ) ;
#4 = VERTEX_POINT ( 'NONE', #200 ) ;
#5 = DIRECTION ( 'NONE',  ( 1.000000000000000000, 0.0000000000000000000, 0.0000000000000000000 ) ) ;
#6 = ORIENTED_EDGE ( 'NONE', *, *, #30, .T. ) ;
#7 =( NAMED_UNIT ( * ) PLANE_ANGLE_UNIT ( ) SI_UNIT ( $, .RADIAN. ) );
#8 = DIRECTION ( 'NONE',  ( 1.000000000000000000, 0.0000000000000000000, 0.0000000000000000000 ) ) ;
#9 = PRODUCT_RELATED_PRODUCT_CATEGORY ( 'part', '', ( #212 ) ) ;
#10 = EDGE_CURVE ( 'NONE', #188, #111, #173, .T. ) ;
#11 = CIRCLE ( 'NONE', #174, 6.000000000000005300 ) ;
#12 = DIRECTION ( 'NONE',  ( 0.0000000000000000000, 0.0000000000000000000, 1.000000000000000000 ) ) ;
#13 = ADVANCED_BREP_SHAPE_REPRESENTATION ( '1288-Z1P-A', ( #29, #40 ), #116 ) ;
#14 = VECTOR ( 'NONE', #181, 1000.000000000000000 ) ;
#15 = AXIS2_PLACEMENT_3D ( 'NONE', #78, #115, #117 ) ;
#16 = CYLINDRICAL_SURFACE ( 'NONE', #107, 3.200000000000002000 ) ;
#17 = PRODUCT_DEFINITION_SHAPE ( 'NONE', 'NONE',  #28 ) ;
#18 = PRODUCT_DEFINITION_FORMATION_WITH_SPECIFIED_SOURCE ( 'ANY', '', #212, .NOT_KNOWN. ) ;
#19 = ADVANCED_FACE ( 'NONE', ( #119 ), #90, .F. ) ;
#20 = EDGE_CURVE ( 'NONE', #88, #209, #86, .T. ) ;
#21 = CARTESIAN_POINT ( 'NONE',  ( 0.0000000000000000000, 0.0000000000000000000, 0.0000000000000000000 ) ) ;
#22 = FILL_AREA_STYLE ('',( #66 ) ) ;
#23 = COLOUR_RGB ( '',0.7921568627450980000, 0.8196078431372548800, 0.9333333333333333500 ) ;
#24 = LINE ( 'NONE', #32, #177 ) ;
#25 = AXIS2_PLACEMENT_3D ( 'NONE', #192, #92, #98 ) ;
#26 = EDGE_LOOP ( 'NONE', ( #206, #176 ) ) ;
#27 = CARTESIAN_POINT ( 'NONE',  ( -6.000000000000005300, 0.0000000000000000000, 0.0000000000000000000 ) ) ;
#28 = PRODUCT_DEFINITION ( 'UNKNOWN', '', #18, #70 ) ;
#29 = MANIFOLD_SOLID_BREP ( 'Boss-Extrude1', #159 ) ;
#30 = EDGE_CURVE ( 'NONE', #88, #4, #114, .T. ) ;
#31 = CARTESIAN_POINT ( 'NONE',  ( 0.0000000000000000000, 0.0000000000000000000, 1.600000000000000100 ) ) ;
#32 = CARTESIAN_POINT ( 'NONE',  ( 3.200000000000002000, 3.918869757271532400E-016, 1.600000000000000100 ) ) ;
#33 =( NAMED_UNIT ( * ) PLANE_ANGLE_UNIT ( ) SI_UNIT ( $, .RADIAN. ) );
#34 = UNCERTAINTY_MEASURE_WITH_UNIT (LENGTH_MEASURE( 1.000000000000000100E-005 ), #189, 'distance_accuracy_value', 'NONE');
#35 = FACE_OUTER_BOUND ( 'NONE', #165, .T. ) ;
#36 = CARTESIAN_POINT ( 'NONE',  ( -3.200000000000002000, 0.0000000000000000000, 0.0000000000000000000 ) ) ;
#37 = AXIS2_PLACEMENT_3D ( 'NONE', #61, #54, #8 ) ;
#38 = ORIENTED_EDGE ( 'NONE', *, *, #48, .T. ) ;
#39 = APPLICATION_PROTOCOL_DEFINITION ( 'draft international standard', 'automotive_design', 1998, #199 ) ;
#40 = AXIS2_PLACEMENT_3D ( 'NONE', #103, #193, #60 ) ;
#41 = DIRECTION ( 'NONE',  ( -0.0000000000000000000, -0.0000000000000000000, -1.000000000000000000 ) ) ;
#42 = EDGE_CURVE ( 'NONE', #4, #109, #182, .T. ) ;
#43 = DIRECTION ( 'NONE',  ( 0.0000000000000000000, 0.0000000000000000000, 1.000000000000000000 ) ) ;
#44 = ORIENTED_EDGE ( 'NONE', *, *, #74, .T. ) ;
#45 = CARTESIAN_POINT ( 'NONE',  ( 3.200000000000002000, 3.918869757271532400E-016, 1.600000000000000100 ) ) ;
#46 = FILL_AREA_STYLE ('',( #164 ) ) ;
#47 = DIRECTION ( 'NONE',  ( 0.0000000000000000000, 0.0000000000000000000, 1.000000000000000000 ) ) ;
#48 = EDGE_CURVE ( 'NONE', #209, #109, #142, .T. ) ;
#49 = PRODUCT_CONTEXT ( 'NONE', #198, 'mechanical' ) ;
#50 = ORIENTED_EDGE ( 'NONE', *, *, #65, .T. ) ;
#51 = DIRECTION ( 'NONE',  ( 1.000000000000000000, 0.0000000000000000000, 0.0000000000000000000 ) ) ;
#52 = ORIENTED_EDGE ( 'NONE', *, *, #55, .T. ) ;
#53 = FACE_OUTER_BOUND ( 'NONE', #196, .T. ) ;
#54 = DIRECTION ( 'NONE',  ( 0.0000000000000000000, 0.0000000000000000000, 1.000000000000000000 ) ) ;
#55 = EDGE_CURVE ( 'NONE', #209, #88, #11, .T. ) ;
#56 = EDGE_LOOP ( 'NONE', ( #120, #50, #157, #133 ) ) ;
#57 = CARTESIAN_POINT ( 'NONE',  ( 6.000000000000005300, 7.347880794884125700E-016, 1.600000000000000100 ) ) ;
#58 = SURFACE_SIDE_STYLE ('',( #154 ) ) ;
#59 = ORIENTED_EDGE ( 'NONE', *, *, #55, .F. ) ;
#60 = DIRECTION ( 'NONE',  ( 1.000000000000000000, 0.0000000000000000000, 0.0000000000000000000 ) ) ;
#61 = CARTESIAN_POINT ( 'NONE',  ( 0.0000000000000000000, 0.0000000000000000000, 1.600000000000000100 ) ) ;
#62 = CARTESIAN_POINT ( 'NONE',  ( -3.200000000000002000, 0.0000000000000000000, 1.600000000000000100 ) ) ;
#63 = DIRECTION ( 'NONE',  ( 1.000000000000000000, 0.0000000000000000000, 0.0000000000000000000 ) ) ;
#64 =( GEOMETRIC_REPRESENTATION_CONTEXT ( 3 ) GLOBAL_UNCERTAINTY_ASSIGNED_CONTEXT ( ( #34 ) ) GLOBAL_UNIT_ASSIGNED_CONTEXT ( ( #189, #7, #1 ) ) REPRESENTATION_CONTEXT ( 'NONE', 'WORKASPACE' ) );
#65 = EDGE_CURVE ( 'NONE', #67, #188, #166, .T. ) ;
#66 = FILL_AREA_STYLE_COLOUR ( '', #23 ) ;
#67 = VERTEX_POINT ( 'NONE', #45 ) ;
#68 = DIRECTION ( 'NONE',  ( 1.000000000000000000, 0.0000000000000000000, 0.0000000000000000000 ) ) ;
#69 = VECTOR ( 'NONE', #89, 1000.000000000000000 ) ;
#70 = PRODUCT_DEFINITION_CONTEXT ( 'detailed design', #199, 'design' ) ;
#71 = ORIENTED_EDGE ( 'NONE', *, *, #10, .F. ) ;
#72 = MECHANICAL_DESIGN_GEOMETRIC_PRESENTATION_REPRESENTATION (  '', ( #96 ), #64 ) ;
#73 = ADVANCED_FACE ( 'NONE', ( #53, #140 ), #150, .F. ) ;
#74 = EDGE_CURVE ( 'NONE', #109, #4, #204, .T. ) ;
#75 = DIRECTION ( 'NONE',  ( -0.0000000000000000000, -0.0000000000000000000, -1.000000000000000000 ) ) ;
#76 = UNCERTAINTY_MEASURE_WITH_UNIT (LENGTH_MEASURE( 1.000000000000000100E-005 ), #205, 'distance_accuracy_value', 'NONE');
#77 = DIRECTION ( 'NONE',  ( 0.0000000000000000000, 0.0000000000000000000, 1.000000000000000000 ) ) ;
#78 = CARTESIAN_POINT ( 'NONE',  ( 0.0000000000000000000, 0.0000000000000000000, 0.0000000000000000000 ) ) ;
#79 = CYLINDRICAL_SURFACE ( 'NONE', #201, 6.000000000000005300 ) ;
#80 = ORIENTED_EDGE ( 'NONE', *, *, #42, .T. ) ;
#81 = DIRECTION ( 'NONE',  ( -1.000000000000000000, 0.0000000000000000000, 0.0000000000000000000 ) ) ;
#82 = DIRECTION ( 'NONE',  ( 1.000000000000000000, 0.0000000000000000000, 0.0000000000000000000 ) ) ;
#83 = FACE_BOUND ( 'NONE', #197, .T. ) ;
#84 = PRESENTATION_LAYER_ASSIGNMENT (  '', '', ( #96 ) ) ;
#85 = EDGE_CURVE ( 'NONE', #110, #111, #100, .T. ) ;
#86 = CIRCLE ( 'NONE', #104, 6.000000000000005300 ) ;
#87 = DIRECTION ( 'NONE',  ( 0.0000000000000000000, 0.0000000000000000000, 1.000000000000000000 ) ) ;
#88 = VERTEX_POINT ( 'NONE', #168 ) ;
#89 = DIRECTION ( 'NONE',  ( -0.0000000000000000000, -0.0000000000000000000, -1.000000000000000000 ) ) ;
#90 = CYLINDRICAL_SURFACE ( 'NONE', #118, 3.200000000000002000 ) ;
#91 = DIRECTION ( 'NONE',  ( -1.000000000000000000, 0.0000000000000000000, 0.0000000000000000000 ) ) ;
#92 = DIRECTION ( 'NONE',  ( 0.0000000000000000000, 0.0000000000000000000, 1.000000000000000000 ) ) ;
#93 = SURFACE_SIDE_STYLE ('',( #180 ) ) ;
#94 = CARTESIAN_POINT ( 'NONE',  ( -6.000000000000005300, 0.0000000000000000000, 1.600000000000000100 ) ) ;
#95 =( NAMED_UNIT ( * ) SI_UNIT ( $, .STERADIAN. ) SOLID_ANGLE_UNIT ( ) );
#96 = STYLED_ITEM ( 'NONE', ( #147 ), #13 ) ;
#97 = STYLED_ITEM ( 'NONE', ( #214 ), #29 ) ;
#98 = DIRECTION ( 'NONE',  ( 1.000000000000000000, 0.0000000000000000000, 0.0000000000000000000 ) ) ;
#99 = CARTESIAN_POINT ( 'NONE',  ( 0.0000000000000000000, 0.0000000000000000000, 0.0000000000000000000 ) ) ;
#100 = CIRCLE ( 'NONE', #25, 3.200000000000002000 ) ;
#101 = CARTESIAN_POINT ( 'NONE',  ( 0.0000000000000000000, 0.0000000000000000000, 1.600000000000000100 ) ) ;
#102 = ORIENTED_EDGE ( 'NONE', *, *, #194, .T. ) ;
#103 = CARTESIAN_POINT ( 'NONE',  ( 0.0000000000000000000, 0.0000000000000000000, 0.0000000000000000000 ) ) ;
#104 = AXIS2_PLACEMENT_3D ( 'NONE', #195, #77, #130 ) ;
#105 = CARTESIAN_POINT ( 'NONE',  ( 0.0000000000000000000, 0.0000000000000000000, 1.600000000000000100 ) ) ;
#106 = ADVANCED_FACE ( 'NONE', ( #190 ), #16, .F. ) ;
#107 = AXIS2_PLACEMENT_3D ( 'NONE', #143, #213, #141 ) ;
#108 = DIRECTION ( 'NONE',  ( 0.0000000000000000000, 0.0000000000000000000, 1.000000000000000000 ) ) ;
#109 = VERTEX_POINT ( 'NONE', #27 ) ;
#110 = VERTEX_POINT ( 'NONE', #202 ) ;
#111 = VERTEX_POINT ( 'NONE', #36 ) ;
#112 = ORIENTED_EDGE ( 'NONE', *, *, #48, .F. ) ;
#113 = ORIENTED_EDGE ( 'NONE', *, *, #30, .F. ) ;
#114 = LINE ( 'NONE', #57, #69 ) ;
#115 = DIRECTION ( 'NONE',  ( 0.0000000000000000000, 0.0000000000000000000, 1.000000000000000000 ) ) ;
#116 =( GEOMETRIC_REPRESENTATION_CONTEXT ( 3 ) GLOBAL_UNCERTAINTY_ASSIGNED_CONTEXT ( ( #76 ) ) GLOBAL_UNIT_ASSIGNED_CONTEXT ( ( #205, #33, #95 ) ) REPRESENTATION_CONTEXT ( 'NONE', 'WORKASPACE' ) );
#117 = DIRECTION ( 'NONE',  ( 1.000000000000000000, 0.0000000000000000000, -0.0000000000000000000 ) ) ;
#118 = AXIS2_PLACEMENT_3D ( 'NONE', #101, #124, #91 ) ;
#119 = FACE_OUTER_BOUND ( 'NONE', #145, .T. ) ;
#120 = ORIENTED_EDGE ( 'NONE', *, *, #179, .F. ) ;
#121 = DIRECTION ( 'NONE',  ( -0.0000000000000000000, -0.0000000000000000000, -1.000000000000000000 ) ) ;
#122 = ORIENTED_EDGE ( 'NONE', *, *, #42, .F. ) ;
#123 = ADVANCED_FACE ( 'NONE', ( #185 ), #210, .T. ) ;
#124 = DIRECTION ( 'NONE',  ( -0.0000000000000000000, -0.0000000000000000000, -1.000000000000000000 ) ) ;
#125 = SHAPE_DEFINITION_REPRESENTATION ( #17, #13 ) ;
#126 = AXIS2_PLACEMENT_3D ( 'NONE', #144, #12, #63 ) ;
#127 = PRESENTATION_LAYER_ASSIGNMENT (  '', '', ( #97 ) ) ;
#128 = DIRECTION ( 'NONE',  ( 0.0000000000000000000, 0.0000000000000000000, 1.000000000000000000 ) ) ;
#129 = CARTESIAN_POINT ( 'NONE',  ( -6.000000000000005300, 0.0000000000000000000, 1.600000000000000100 ) ) ;
#130 = DIRECTION ( 'NONE',  ( 1.000000000000000000, 0.0000000000000000000, 0.0000000000000000000 ) ) ;
#131 = APPLICATION_PROTOCOL_DEFINITION ( 'draft international standard', 'automotive_design', 1998, #198 ) ;
#132 = DIRECTION ( 'NONE',  ( 1.000000000000000000, 0.0000000000000000000, -0.0000000000000000000 ) ) ;
#133 = ORIENTED_EDGE ( 'NONE', *, *, #85, .F. ) ;
#134 = AXIS2_PLACEMENT_3D ( 'NONE', #156, #47, #132 ) ;
#135 = ADVANCED_FACE ( 'NONE', ( #170 ), #79, .T. ) ;
#136 = DIRECTION ( 'NONE',  ( -0.0000000000000000000, -0.0000000000000000000, -1.000000000000000000 ) ) ;
#137 = EDGE_LOOP ( 'NONE', ( #167, #6, #80, #112 ) ) ;
#138 = MECHANICAL_DESIGN_GEOMETRIC_PRESENTATION_REPRESENTATION (  '', ( #97 ), #149 ) ;
#139 = ADVANCED_FACE ( 'NONE', ( #35, #83 ), #153, .T. ) ;
#140 = FACE_BOUND ( 'NONE', #26, .T. ) ;
#141 = DIRECTION ( 'NONE',  ( -1.000000000000000000, 0.0000000000000000000, 0.0000000000000000000 ) ) ;
#142 = LINE ( 'NONE', #129, #169 ) ;
#143 = CARTESIAN_POINT ( 'NONE',  ( 0.0000000000000000000, 0.0000000000000000000, 1.600000000000000100 ) ) ;
#144 = CARTESIAN_POINT ( 'NONE',  ( 0.0000000000000000000, 0.0000000000000000000, 0.0000000000000000000 ) ) ;
#145 = EDGE_LOOP ( 'NONE', ( #102, #2, #183, #71 ) ) ;
#146 = AXIS2_PLACEMENT_3D ( 'NONE', #178, #75, #160 ) ;
#147 = PRESENTATION_STYLE_ASSIGNMENT (( #172 ) ) ;
#148 =( LENGTH_UNIT ( ) NAMED_UNIT ( * ) SI_UNIT ( .MILLI., .METRE. ) );
#149 =( GEOMETRIC_REPRESENTATION_CONTEXT ( 3 ) GLOBAL_UNCERTAINTY_ASSIGNED_CONTEXT ( ( #151 ) ) GLOBAL_UNIT_ASSIGNED_CONTEXT ( ( #148, #211, #155 ) ) REPRESENTATION_CONTEXT ( 'NONE', 'WORKASPACE' ) );
#150 = PLANE ( 'NONE',  #15 ) ;
#151 = UNCERTAINTY_MEASURE_WITH_UNIT (LENGTH_MEASURE( 1.000000000000000100E-005 ), #148, 'distance_accuracy_value', 'NONE');
#152 = ORIENTED_EDGE ( 'NONE', *, *, #65, .F. ) ;
#153 = PLANE ( 'NONE',  #134 ) ;
#154 = SURFACE_STYLE_FILL_AREA ( #22 ) ;
#155 =( NAMED_UNIT ( * ) SI_UNIT ( $, .STERADIAN. ) SOLID_ANGLE_UNIT ( ) );
#156 = CARTESIAN_POINT ( 'NONE',  ( 0.0000000000000000000, 0.0000000000000000000, 1.600000000000000100 ) ) ;
#157 = ORIENTED_EDGE ( 'NONE', *, *, #10, .T. ) ;
#158 = CIRCLE ( 'NONE', #126, 3.200000000000002000 ) ;
#159 = CLOSED_SHELL ( 'NONE', ( #19, #123, #139, #73, #135, #106 ) ) ;
#160 = DIRECTION ( 'NONE',  ( -1.000000000000000000, 0.0000000000000000000, 0.0000000000000000000 ) ) ;
#161 = AXIS2_PLACEMENT_3D ( 'NONE', #21, #43, #5 ) ;
#162 = ORIENTED_EDGE ( 'NONE', *, *, #20, .T. ) ;
#163 = ORIENTED_EDGE ( 'NONE', *, *, #74, .F. ) ;
#164 = FILL_AREA_STYLE_COLOUR ( '', #171 ) ;
#165 = EDGE_LOOP ( 'NONE', ( #52, #162 ) ) ;
#166 = CIRCLE ( 'NONE', #187, 3.200000000000002000 ) ;
#167 = ORIENTED_EDGE ( 'NONE', *, *, #20, .F. ) ;
#168 = CARTESIAN_POINT ( 'NONE',  ( 6.000000000000005300, 7.347880794884125700E-016, 1.600000000000000100 ) ) ;
#169 = VECTOR ( 'NONE', #121, 1000.000000000000000 ) ;
#170 = FACE_OUTER_BOUND ( 'NONE', #186, .T. ) ;
#171 = COLOUR_RGB ( '',0.7921568627450980000, 0.8196078431372548800, 0.9333333333333333500 ) ;
#172 = SURFACE_STYLE_USAGE ( .BOTH. , #58 ) ;
#173 = LINE ( 'NONE', #62, #14 ) ;
#174 = AXIS2_PLACEMENT_3D ( 'NONE', #31, #87, #82 ) ;
#175 = CARTESIAN_POINT ( 'NONE',  ( 0.0000000000000000000, 0.0000000000000000000, 1.600000000000000100 ) ) ;
#176 = ORIENTED_EDGE ( 'NONE', *, *, #85, .T. ) ;
#177 = VECTOR ( 'NONE', #136, 1000.000000000000000 ) ;
#178 = CARTESIAN_POINT ( 'NONE',  ( 0.0000000000000000000, 0.0000000000000000000, 1.600000000000000100 ) ) ;
#179 = EDGE_CURVE ( 'NONE', #67, #110, #24, .T. ) ;
#180 = SURFACE_STYLE_FILL_AREA ( #46 ) ;
#181 = DIRECTION ( 'NONE',  ( -0.0000000000000000000, -0.0000000000000000000, -1.000000000000000000 ) ) ;
#182 = CIRCLE ( 'NONE', #161, 6.000000000000005300 ) ;
#183 = ORIENTED_EDGE ( 'NONE', *, *, #207, .F. ) ;
#184 = CIRCLE ( 'NONE', #37, 3.200000000000002000 ) ;
#185 = FACE_OUTER_BOUND ( 'NONE', #137, .T. ) ;
#186 = EDGE_LOOP ( 'NONE', ( #113, #59, #38, #44 ) ) ;
#187 = AXIS2_PLACEMENT_3D ( 'NONE', #175, #128, #51 ) ;
#188 = VERTEX_POINT ( 'NONE', #191 ) ;
#189 =( LENGTH_UNIT ( ) NAMED_UNIT ( * ) SI_UNIT ( .MILLI., .METRE. ) );
#190 = FACE_OUTER_BOUND ( 'NONE', #56, .T. ) ;
#191 = CARTESIAN_POINT ( 'NONE',  ( -3.200000000000002000, 0.0000000000000000000, 1.600000000000000100 ) ) ;
#192 = CARTESIAN_POINT ( 'NONE',  ( 0.0000000000000000000, 0.0000000000000000000, 0.0000000000000000000 ) ) ;
#193 = DIRECTION ( 'NONE',  ( 0.0000000000000000000, 0.0000000000000000000, 1.000000000000000000 ) ) ;
#194 = EDGE_CURVE ( 'NONE', #188, #67, #184, .T. ) ;
#195 = CARTESIAN_POINT ( 'NONE',  ( 0.0000000000000000000, 0.0000000000000000000, 1.600000000000000100 ) ) ;
#196 = EDGE_LOOP ( 'NONE', ( #163, #122 ) ) ;
#197 = EDGE_LOOP ( 'NONE', ( #203, #152 ) ) ;
#198 = APPLICATION_CONTEXT ( 'automotive_design' ) ;
#199 = APPLICATION_CONTEXT ( 'automotive_design' ) ;
#200 = CARTESIAN_POINT ( 'NONE',  ( 6.000000000000005300, 7.347880794884125700E-016, 0.0000000000000000000 ) ) ;
#201 = AXIS2_PLACEMENT_3D ( 'NONE', #105, #41, #81 ) ;
#202 = CARTESIAN_POINT ( 'NONE',  ( 3.200000000000002000, 3.918869757271532400E-016, 0.0000000000000000000 ) ) ;
#203 = ORIENTED_EDGE ( 'NONE', *, *, #194, .F. ) ;
#204 = CIRCLE ( 'NONE', #3, 6.000000000000005300 ) ;
#205 =( LENGTH_UNIT ( ) NAMED_UNIT ( * ) SI_UNIT ( .MILLI., .METRE. ) );
#206 = ORIENTED_EDGE ( 'NONE', *, *, #207, .T. ) ;
#207 = EDGE_CURVE ( 'NONE', #111, #110, #158, .T. ) ;
#208 = SURFACE_STYLE_USAGE ( .BOTH. , #93 ) ;
#209 = VERTEX_POINT ( 'NONE', #94 ) ;
#210 = CYLINDRICAL_SURFACE ( 'NONE', #146, 6.000000000000005300 ) ;
#211 =( NAMED_UNIT ( * ) PLANE_ANGLE_UNIT ( ) SI_UNIT ( $, .RADIAN. ) );
#212 = PRODUCT ( '1288-Z1P-A', '1288-Z1P-A', '', ( #49 ) ) ;
#213 = DIRECTION ( 'NONE',  ( -0.0000000000000000000, -0.0000000000000000000, -1.000000000000000000 ) ) ;
#214 = PRESENTATION_STYLE_ASSIGNMENT (( #208 ) ) ;
ENDSEC;
END-ISO-10303-21;
