ISO-10303-21;
HEADER;
FILE_DESCRIPTION (( 'STEP AP214' ),
    '1' );
FILE_NAME ('1211-Z1P-A.STEP',
    '2013-05-15T14:57:10',
    ( '3DAssist' ),
    ( '' ),
    'SwSTEP 2.0',
    'SolidWorks 2013',
    '' );
FILE_SCHEMA (( 'AUTOMOTIVE_DESIGN' ));
ENDSEC;

DATA;
#1 = CARTESIAN_POINT ( 'NONE',  ( 0.0000000000000000000, 1.000000000000003800, 0.5773502691896238400 ) ) ;
#2 = DIRECTION ( 'NONE',  ( -1.000000000000000000, -0.0000000000000000000, -0.0000000000000000000 ) ) ;
#3 = LINE ( 'NONE', #210, #43 ) ;
#4 = ORIENTED_EDGE ( 'NONE', *, *, #329, .F. ) ;
#5 = EDGE_LOOP ( 'NONE', ( #78, #362, #57, #173 ) ) ;
#6 = VERTEX_POINT ( 'NONE', #211 ) ;
#7 = EDGE_LOOP ( 'NONE', ( #67 ) ) ;
#8 = MANIFOLD_SOLID_BREP ( 'Hex', #38 ) ;
#9 = ORIENTED_EDGE ( 'NONE', *, *, #307, .T. ) ;
#10 = LINE ( 'NONE', #199, #70 ) ;
#11 = EDGE_CURVE ( 'NONE', #168, #48, #40, .T. ) ;
#12 = EDGE_CURVE ( 'NONE', #168, #105, #17, .T. ) ;
#13 = EDGE_CURVE ( 'NONE', #49, #59, #3, .T. ) ;
#14 = UNCERTAINTY_MEASURE_WITH_UNIT (LENGTH_MEASURE( 1.000000000000000100E-005 ), #219, 'distance_accuracy_value', 'NONE');
#15 = FACE_OUTER_BOUND ( 'NONE', #338, .T. ) ;
#16 = ORIENTED_EDGE ( 'NONE', *, *, #11, .F. ) ;
#17 = LINE ( 'NONE', #75, #170 ) ;
#18 = PRODUCT_DEFINITION_SHAPE ( 'NONE', 'NONE',  #350 ) ;
#19 = FACE_OUTER_BOUND ( 'NONE', #99, .T. ) ;
#20 = EDGE_LOOP ( 'NONE', ( #93 ) ) ;
#21 = VECTOR ( 'NONE', #77, 1000.000000000000000 ) ;
#22 = ORIENTED_EDGE ( 'NONE', *, *, #340, .F. ) ;
#23 = CIRCLE ( 'NONE', #318, 1.250000000000000000 ) ;
#24 = ORIENTED_EDGE ( 'NONE', *, *, #331, .F. ) ;
#25 = ORIENTED_EDGE ( 'NONE', *, *, #301, .T. ) ;
#26 = CIRCLE ( 'NONE', #317, 2.000000000000000000 ) ;
#27 = VERTEX_POINT ( 'NONE', #157 ) ;
#28 = VERTEX_POINT ( 'NONE', #225 ) ;
#29 = LINE ( 'NONE', #126, #274 ) ;
#30 = LINE ( 'NONE', #110, #322 ) ;
#31 = ORIENTED_EDGE ( 'NONE', *, *, #303, .F. ) ;
#32 = UNCERTAINTY_MEASURE_WITH_UNIT (LENGTH_MEASURE( 1.000000000000000100E-005 ), #145, 'distance_accuracy_value', 'NONE');
#33 = LINE ( 'NONE', #118, #296 ) ;
#34 = VECTOR ( 'NONE', #74, 1000.000000000000200 ) ;
#35 = VERTEX_POINT ( 'NONE', #229 ) ;
#36 = CIRCLE ( 'NONE', #316, 1.610000000000001000 ) ;
#37 = ORIENTED_EDGE ( 'NONE', *, *, #302, .T. ) ;
#38 = CLOSED_SHELL ( 'NONE', ( #249, #248, #247, #245, #244, #243, #241, #234, #233, #232, #250, #237 ) ) ;
#39 = VERTEX_POINT ( 'NONE', #228 ) ;
#40 = LINE ( 'NONE', #223, #46 ) ;
#41 = COLOUR_RGB ( '',0.7529411764705882200, 0.7529411764705882200, 0.7529411764705882200 ) ;
#42 = LINE ( 'NONE', #1, #21 ) ;
#43 = VECTOR ( 'NONE', #226, 1000.000000000000000 ) ;
#44 = ADVANCED_BREP_SHAPE_REPRESENTATION ( '1211-Z1P-A', ( #8, #124 ), #352 ) ;
#45 = SURFACE_STYLE_FILL_AREA ( #216 ) ;
#46 = VECTOR ( 'NONE', #206, 1000.000000000000000 ) ;
#47 = ORIENTED_EDGE ( 'NONE', *, *, #13, .F. ) ;
#48 = VERTEX_POINT ( 'NONE', #214 ) ;
#49 = VERTEX_POINT ( 'NONE', #235 ) ;
#50 = ORIENTED_EDGE ( 'NONE', *, *, #11, .T. ) ;
#51 = ORIENTED_EDGE ( 'NONE', *, *, #341, .F. ) ;
#52 = PRESENTATION_STYLE_ASSIGNMENT (( #218 ) ) ;
#53 = ORIENTED_EDGE ( 'NONE', *, *, #301, .F. ) ;
#54 = ORIENTED_EDGE ( 'NONE', *, *, #332, .F. ) ;
#55 = ORIENTED_EDGE ( 'NONE', *, *, #330, .F. ) ;
#56 = ORIENTED_EDGE ( 'NONE', *, *, #337, .F. ) ;
#57 = ORIENTED_EDGE ( 'NONE', *, *, #339, .F. ) ;
#58 = UNCERTAINTY_MEASURE_WITH_UNIT (LENGTH_MEASURE( 1.000000000000000100E-005 ), #64, 'distance_accuracy_value', 'NONE');
#59 = VERTEX_POINT ( 'NONE', #227 ) ;
#60 = CARTESIAN_POINT ( 'NONE',  ( 1.500000000000000000, 3.245388524374309000E-015, -1.154700538379253700 ) ) ;
#61 = ORIENTED_EDGE ( 'NONE', *, *, #310, .T. ) ;
#62 = DIRECTION ( 'NONE',  ( -0.0000000000000000000, 0.0000000000000000000, -1.000000000000000000 ) ) ;
#63 = SURFACE_STYLE_USAGE ( .BOTH. , #200 ) ;
#64 =( LENGTH_UNIT ( ) NAMED_UNIT ( * ) SI_UNIT ( .MILLI., .METRE. ) );
#65 = VERTEX_POINT ( 'NONE', #246 ) ;
#66 =( NAMED_UNIT ( * ) PLANE_ANGLE_UNIT ( ) SI_UNIT ( $, .RADIAN. ) );
#67 = ORIENTED_EDGE ( 'NONE', *, *, #307, .F. ) ;
#68 = ORIENTED_EDGE ( 'NONE', *, *, #13, .T. ) ;
#69 = UNCERTAINTY_MEASURE_WITH_UNIT (LENGTH_MEASURE( 1.000000000000000100E-005 ), #135, 'distance_accuracy_value', 'NONE');
#70 = VECTOR ( 'NONE', #160, 1000.000000000000100 ) ;
#71 = ORIENTED_EDGE ( 'NONE', *, *, #303, .T. ) ;
#72 = PRODUCT ( '1211-Z1P-A', '1211-Z1P-A', '', ( #153 ) ) ;
#73 = CARTESIAN_POINT ( 'NONE',  ( -0.0000000000000000000, -0.9999999999999972200, -0.5773502691896281700 ) ) ;
#74 = DIRECTION ( 'NONE',  ( 0.0000000000000000000, 0.8660254037844386000, 0.5000000000000000000 ) ) ;
#75 = CARTESIAN_POINT ( 'NONE',  ( 1.500000000000000000, -0.9999999999999972200, -0.5773502691896281700 ) ) ;
#76 = VERTEX_POINT ( 'NONE', #251 ) ;
#77 = DIRECTION ( 'NONE',  ( 0.0000000000000000000, -1.877893248421448800E-016, -1.000000000000000000 ) ) ;
#78 = ORIENTED_EDGE ( 'NONE', *, *, #333, .T. ) ;
#79 = EDGE_LOOP ( 'NONE', ( #143 ) ) ;
#80 = DIRECTION ( 'NONE',  ( 0.0000000000000000000, -0.8660254037844387100, -0.4999999999999999400 ) ) ;
#81 = CARTESIAN_POINT ( 'NONE',  ( 0.0000000000000000000, 1.000000000000003800, 0.5773502691896238400 ) ) ;
#82 = DIRECTION ( 'NONE',  ( 0.0000000000000000000, 0.0000000000000000000, 1.000000000000000000 ) ) ;
#83 = DIRECTION ( 'NONE',  ( -1.000000000000000000, -0.0000000000000000000, -0.0000000000000000000 ) ) ;
#84 = CARTESIAN_POINT ( 'NONE',  ( 0.2251666049839524100, 0.0000000000000000000, 0.0000000000000000000 ) ) ;
#85 = EDGE_LOOP ( 'NONE', ( #119 ) ) ;
#86 = ORIENTED_EDGE ( 'NONE', *, *, #335, .T. ) ;
#87 = EDGE_LOOP ( 'NONE', ( #54, #47, #91, #25 ) ) ;
#88 = EDGE_LOOP ( 'NONE', ( #61, #22, #51, #68 ) ) ;
#89 = ORIENTED_EDGE ( 'NONE', *, *, #339, .T. ) ;
#90 = ORIENTED_EDGE ( 'NONE', *, *, #12, .F. ) ;
#91 = ORIENTED_EDGE ( 'NONE', *, *, #308, .T. ) ;
#92 = EDGE_LOOP ( 'NONE', ( #24 ) ) ;
#93 = ORIENTED_EDGE ( 'NONE', *, *, #331, .T. ) ;
#94 = ORIENTED_EDGE ( 'NONE', *, *, #12, .T. ) ;
#95 = ORIENTED_EDGE ( 'NONE', *, *, #335, .F. ) ;
#96 = PRODUCT_DEFINITION_CONTEXT ( 'detailed design', #154, 'design' ) ;
#97 = ORIENTED_EDGE ( 'NONE', *, *, #330, .T. ) ;
#98 = VERTEX_POINT ( 'NONE', #242 ) ;
#99 = EDGE_LOOP ( 'NONE', ( #102 ) ) ;
#100 = FACE_OUTER_BOUND ( 'NONE', #132, .T. ) ;
#101 = FACE_OUTER_BOUND ( 'NONE', #107, .T. ) ;
#102 = ORIENTED_EDGE ( 'NONE', *, *, #306, .T. ) ;
#103 = ORIENTED_EDGE ( 'NONE', *, *, #304, .F. ) ;
#104 = ORIENTED_EDGE ( 'NONE', *, *, #305, .T. ) ;
#105 = VERTEX_POINT ( 'NONE', #240 ) ;
#106 = DIRECTION ( 'NONE',  ( -1.000000000000000000, -0.0000000000000000000, -0.0000000000000000000 ) ) ;
#107 = EDGE_LOOP ( 'NONE', ( #197, #289, #89, #90, #103, #37 ) ) ;
#108 = DIRECTION ( 'NONE',  ( 0.0000000000000000000, 0.0000000000000000000, 1.000000000000000000 ) ) ;
#109 = DIRECTION ( 'NONE',  ( 0.0000000000000000000, -0.8660254037844387100, 0.4999999999999998300 ) ) ;
#110 = CARTESIAN_POINT ( 'NONE',  ( 0.0000000000000000000, 1.000000000000003600, -0.5773502691896279500 ) ) ;
#111 = VECTOR ( 'NONE', #2, 1000.000000000000000 ) ;
#112 = CONICAL_SURFACE ( 'NONE', #355, 1.610000000000001000, 1.047197551196599900 ) ;
#113 = CARTESIAN_POINT ( 'NONE',  ( 3.250000000000002700, 0.0000000000000000000, 2.000000000000000000 ) ) ;
#114 = DIRECTION ( 'NONE',  ( 0.0000000000000000000, 0.8660254037844388200, -0.4999999999999997200 ) ) ;
#115 = CARTESIAN_POINT ( 'NONE',  ( 0.0000000000000000000, -0.9999999999999972200, 0.5773502691896236200 ) ) ;
#116 = AXIS2_PLACEMENT_3D ( 'NONE', #175, #178, #181 ) ;
#117 = DIRECTION ( 'NONE',  ( -0.0000000000000000000, 0.0000000000000000000, -1.000000000000000000 ) ) ;
#118 = CARTESIAN_POINT ( 'NONE',  ( 1.500000000000000000, 1.000000000000003600, -0.5773502691896279500 ) ) ;
#119 = ORIENTED_EDGE ( 'NONE', *, *, #329, .T. ) ;
#120 = DIRECTION ( 'NONE',  ( 0.0000000000000000000, -0.8660254037844387100, -0.4999999999999999400 ) ) ;
#121 = FACE_OUTER_BOUND ( 'NONE', #5, .T. ) ;
#122 = CARTESIAN_POINT ( 'NONE',  ( 1.500000000000000000, 1.000000000000003600, -0.5773502691896279500 ) ) ;
#123 = PRESENTATION_STYLE_ASSIGNMENT (( #63 ) ) ;
#124 = AXIS2_PLACEMENT_3D ( 'NONE', #127, #151, #152 ) ;
#125 = DIRECTION ( 'NONE',  ( -1.000000000000000000, -0.0000000000000000000, -0.0000000000000000000 ) ) ;
#126 = CARTESIAN_POINT ( 'NONE',  ( 1.500000000000000000, 1.000000000000003800, 0.5773502691896238400 ) ) ;
#127 = CARTESIAN_POINT ( 'NONE',  ( 0.0000000000000000000, 0.0000000000000000000, 0.0000000000000000000 ) ) ;
#128 = DIRECTION ( 'NONE',  ( 0.0000000000000000000, -1.877893248421448800E-016, -1.000000000000000000 ) ) ;
#129 = CARTESIAN_POINT ( 'NONE',  ( 0.0000000000000000000, 0.0000000000000000000, 1.610000000000001000 ) ) ;
#130 = CARTESIAN_POINT ( 'NONE',  ( 4.000000000000000000, 0.0000000000000000000, 1.250000000000000000 ) ) ;
#131 = FILL_AREA_STYLE_COLOUR ( '', #230 ) ;
#132 = EDGE_LOOP ( 'NONE', ( #95, #16, #94, #104 ) ) ;
#133 = FACE_OUTER_BOUND ( 'NONE', #85, .T. ) ;
#134 = AXIS2_PLACEMENT_3D ( 'NONE', #182, #177, #187 ) ;
#135 =( LENGTH_UNIT ( ) NAMED_UNIT ( * ) SI_UNIT ( .MILLI., .METRE. ) );
#136 =( NAMED_UNIT ( * ) PLANE_ANGLE_UNIT ( ) SI_UNIT ( $, .RADIAN. ) );
#137 =( NAMED_UNIT ( * ) SI_UNIT ( $, .STERADIAN. ) SOLID_ANGLE_UNIT ( ) );
#138 = APPLICATION_PROTOCOL_DEFINITION ( 'draft international standard', 'automotive_design', 1998, #139 ) ;
#139 = APPLICATION_CONTEXT ( 'automotive_design' ) ;
#140 = FILL_AREA_STYLE ('',( #131 ) ) ;
#141 = EDGE_LOOP ( 'NONE', ( #326, #150, #55, #282, #86, #148 ) ) ;
#142 = SURFACE_SIDE_STYLE ('',( #283 ) ) ;
#143 = ORIENTED_EDGE ( 'NONE', *, *, #306, .F. ) ;
#144 = SURFACE_STYLE_USAGE ( .BOTH. , #142 ) ;
#145 =( LENGTH_UNIT ( ) NAMED_UNIT ( * ) SI_UNIT ( .MILLI., .METRE. ) );
#146 =( NAMED_UNIT ( * ) PLANE_ANGLE_UNIT ( ) SI_UNIT ( $, .RADIAN. ) );
#147 = CIRCLE ( 'NONE', #361, 2.000000000000000000 ) ;
#148 = ORIENTED_EDGE ( 'NONE', *, *, #333, .F. ) ;
#149 =( NAMED_UNIT ( * ) SI_UNIT ( $, .STERADIAN. ) SOLID_ANGLE_UNIT ( ) );
#150 = ORIENTED_EDGE ( 'NONE', *, *, #332, .T. ) ;
#151 = DIRECTION ( 'NONE',  ( 0.0000000000000000000, 0.0000000000000000000, 1.000000000000000000 ) ) ;
#152 = DIRECTION ( 'NONE',  ( 1.000000000000000000, 0.0000000000000000000, 0.0000000000000000000 ) ) ;
#153 = PRODUCT_CONTEXT ( 'NONE', #139, 'mechanical' ) ;
#154 = APPLICATION_CONTEXT ( 'automotive_design' ) ;
#155 = APPLICATION_PROTOCOL_DEFINITION ( 'draft international standard', 'automotive_design', 1998, #154 ) ;
#156 = CARTESIAN_POINT ( 'NONE',  ( 4.000000000000000000, 0.0000000000000000000, 0.0000000000000000000 ) ) ;
#157 = CARTESIAN_POINT ( 'NONE',  ( 0.2251666049839524100, 0.0000000000000000000, 2.000000000000000000 ) ) ;
#158 = DIRECTION ( 'NONE',  ( 0.0000000000000000000, 0.0000000000000000000, 1.000000000000000000 ) ) ;
#159 = EDGE_LOOP ( 'NONE', ( #56, #31, #343, #50 ) ) ;
#160 = DIRECTION ( 'NONE',  ( 0.0000000000000000000, -0.8660254037844387100, 0.4999999999999998300 ) ) ;
#161 = VECTOR ( 'NONE', #62, 1000.000000000000000 ) ;
#162 = CARTESIAN_POINT ( 'NONE',  ( 0.0000000000000000000, -0.9999999999999972200, 0.5773502691896236200 ) ) ;
#163 = CARTESIAN_POINT ( 'NONE',  ( 3.250000000000002700, 0.0000000000000000000, 0.0000000000000000000 ) ) ;
#164 = DIRECTION ( 'NONE',  ( -1.000000000000000000, -0.0000000000000000000, -0.0000000000000000000 ) ) ;
#165 = DIRECTION ( 'NONE',  ( 0.0000000000000000000, 0.0000000000000000000, 1.000000000000000000 ) ) ;
#166 =( NAMED_UNIT ( * ) SI_UNIT ( $, .STERADIAN. ) SOLID_ANGLE_UNIT ( ) );
#167 = EDGE_LOOP ( 'NONE', ( #97, #53, #346, #71 ) ) ;
#168 = VERTEX_POINT ( 'NONE', #253 ) ;
#169 = DIRECTION ( 'NONE',  ( 0.0000000000000000000, 0.0000000000000000000, 1.000000000000000000 ) ) ;
#170 = VECTOR ( 'NONE', #213, 1000.000000000000000 ) ;
#171 = DIRECTION ( 'NONE',  ( 0.0000000000000000000, 0.0000000000000000000, 1.000000000000000000 ) ) ;
#172 = CARTESIAN_POINT ( 'NONE',  ( 3.250000000000002700, 0.0000000000000000000, 0.0000000000000000000 ) ) ;
#173 = ORIENTED_EDGE ( 'NONE', *, *, #340, .T. ) ;
#174 = DIRECTION ( 'NONE',  ( -1.000000000000000000, -0.0000000000000000000, -0.0000000000000000000 ) ) ;
#175 = CARTESIAN_POINT ( 'NONE',  ( 4.000000000000000000, 1.250000000000000000, 0.0000000000000000000 ) ) ;
#176 = PLANE ( 'NONE',  #116 ) ;
#177 = DIRECTION ( 'NONE',  ( -1.000000000000000000, 0.0000000000000000000, -0.0000000000000000000 ) ) ;
#178 = DIRECTION ( 'NONE',  ( 1.000000000000000000, 0.0000000000000000000, 0.0000000000000000000 ) ) ;
#179 = CARTESIAN_POINT ( 'NONE',  ( 0.0000000000000000000, 0.0000000000000000000, 0.0000000000000000000 ) ) ;
#180 = LINE ( 'NONE', #60, #111 ) ;
#181 = DIRECTION ( 'NONE',  ( 0.0000000000000000000, 0.0000000000000000000, -1.000000000000000000 ) ) ;
#182 = CARTESIAN_POINT ( 'NONE',  ( 2.676465579536540400E-016, 0.0000000000000000000, 0.0000000000000000000 ) ) ;
#183 = PLANE ( 'NONE',  #315 ) ;
#184 = PLANE ( 'NONE',  #134 ) ;
#185 = DIRECTION ( 'NONE',  ( -1.000000000000000000, -0.0000000000000000000, -0.0000000000000000000 ) ) ;
#186 = CARTESIAN_POINT ( 'NONE',  ( 1.500000000000000000, 1.000000000000003800, 0.5773502691896238400 ) ) ;
#187 = DIRECTION ( 'NONE',  ( -0.0000000000000000000, 0.0000000000000000000, 1.000000000000000000 ) ) ;
#188 = CARTESIAN_POINT ( 'NONE',  ( 1.500000000000000000, -0.9999999999999972200, 0.5773502691896236200 ) ) ;
#189 = DIRECTION ( 'NONE',  ( 0.0000000000000000000, 1.000000000000000000, -1.877893248421448800E-016 ) ) ;
#190 = VECTOR ( 'NONE', #198, 1000.000000000000000 ) ;
#191 = DIRECTION ( 'NONE',  ( 0.0000000000000000000, 1.877893248421448800E-016, 1.000000000000000000 ) ) ;
#192 = DIRECTION ( 'NONE',  ( -1.000000000000000000, -0.0000000000000000000, -0.0000000000000000000 ) ) ;
#193 = CARTESIAN_POINT ( 'NONE',  ( 1.500000000000000000, 3.252606517456513300E-015, 1.154700538379249700 ) ) ;
#194 = CARTESIAN_POINT ( 'NONE',  ( 1.500000000000000000, -0.9999999999999972200, 0.5773502691896236200 ) ) ;
#195 = CARTESIAN_POINT ( 'NONE',  ( 1.500000000000000000, -0.9999999999999972200, 0.5773502691896236200 ) ) ;
#196 = DIRECTION ( 'NONE',  ( 0.0000000000000000000, 0.8660254037844386000, 0.5000000000000000000 ) ) ;
#197 = ORIENTED_EDGE ( 'NONE', *, *, #308, .F. ) ;
#198 = DIRECTION ( 'NONE',  ( -1.000000000000000000, -0.0000000000000000000, -0.0000000000000000000 ) ) ;
#199 = CARTESIAN_POINT ( 'NONE',  ( 1.500000000000000000, 1.000000000000003800, 0.5773502691896238400 ) ) ;
#200 = SURFACE_SIDE_STYLE ('',( #323 ) ) ;
#201 = FACE_OUTER_BOUND ( 'NONE', #87, .T. ) ;
#202 = CARTESIAN_POINT ( 'NONE',  ( -12.69999999999998200, 0.0000000000000000000, 0.0000000000000000000 ) ) ;
#203 = FILL_AREA_STYLE ('',( #285 ) ) ;
#204 = DIRECTION ( 'NONE',  ( -1.000000000000000000, -0.0000000000000000000, -0.0000000000000000000 ) ) ;
#205 = FACE_OUTER_BOUND ( 'NONE', #159, .T. ) ;
#206 = DIRECTION ( 'NONE',  ( -1.000000000000000000, -0.0000000000000000000, -0.0000000000000000000 ) ) ;
#207 = VECTOR ( 'NONE', #196, 1000.000000000000200 ) ;
#208 = PRESENTATION_STYLE_ASSIGNMENT (( #144 ) ) ;
#209 = LINE ( 'NONE', #195, #161 ) ;
#210 = CARTESIAN_POINT ( 'NONE',  ( 1.500000000000000000, 1.000000000000003800, 0.5773502691896238400 ) ) ;
#211 = CARTESIAN_POINT ( 'NONE',  ( 1.500000000000000000, 1.000000000000003600, -0.5773502691896279500 ) ) ;
#212 = FILL_AREA_STYLE_COLOUR ( '', #41 ) ;
#213 = DIRECTION ( 'NONE',  ( 0.0000000000000000000, 0.8660254037844388200, -0.4999999999999997200 ) ) ;
#214 = CARTESIAN_POINT ( 'NONE',  ( -0.0000000000000000000, -0.9999999999999972200, -0.5773502691896281700 ) ) ;
#215 = FACE_BOUND ( 'NONE', #7, .T. ) ;
#216 = FILL_AREA_STYLE ('',( #212 ) ) ;
#217 = SURFACE_SIDE_STYLE ('',( #45 ) ) ;
#218 = SURFACE_STYLE_USAGE ( .BOTH. , #217 ) ;
#219 =( LENGTH_UNIT ( ) NAMED_UNIT ( * ) SI_UNIT ( .MILLI., .METRE. ) );
#220 =( NAMED_UNIT ( * ) PLANE_ANGLE_UNIT ( ) SI_UNIT ( $, .RADIAN. ) );
#221 =( NAMED_UNIT ( * ) SI_UNIT ( $, .STERADIAN. ) SOLID_ANGLE_UNIT ( ) );
#222 = LINE ( 'NONE', #188, #207 ) ;
#223 = CARTESIAN_POINT ( 'NONE',  ( 1.500000000000000000, -0.9999999999999972200, -0.5773502691896281700 ) ) ;
#224 = VECTOR ( 'NONE', #192, 1000.000000000000000 ) ;
#225 = CARTESIAN_POINT ( 'NONE',  ( 0.0000000000000000000, 1.000000000000003600, -0.5773502691896279500 ) ) ;
#226 = DIRECTION ( 'NONE',  ( -1.000000000000000000, -0.0000000000000000000, -0.0000000000000000000 ) ) ;
#227 = CARTESIAN_POINT ( 'NONE',  ( 2.676465579536540400E-016, 1.000000000000003800, 0.5773502691896238400 ) ) ;
#228 = CARTESIAN_POINT ( 'NONE',  ( 1.500000000000000000, -0.9999999999999972200, 0.5773502691896236200 ) ) ;
#229 = CARTESIAN_POINT ( 'NONE',  ( 0.0000000000000000000, 3.252606517456513300E-015, 1.154700538379249700 ) ) ;
#230 = COLOUR_RGB ( '',0.7529411764705882200, 0.7529411764705882200, 0.7529411764705882200 ) ;
#231 = CONICAL_SURFACE ( 'NONE', #313, 2.000000000000000000, 0.7853981633974501700 ) ;
#232 = ADVANCED_FACE ( 'NONE', ( #121 ), #254, .F. ) ;
#233 = ADVANCED_FACE ( 'NONE', ( #100 ), #236, .T. ) ;
#234 = ADVANCED_FACE ( 'NONE', ( #205 ), #261, .T. ) ;
#235 = CARTESIAN_POINT ( 'NONE',  ( 1.500000000000000000, 1.000000000000003800, 0.5773502691896238400 ) ) ;
#236 = PLANE ( 'NONE',  #345 ) ;
#237 = ADVANCED_FACE ( 'NONE', ( #101 ), #269, .F. ) ;
#238 = VERTEX_POINT ( 'NONE', #130 ) ;
#239 = LINE ( 'NONE', #193, #224 ) ;
#240 = CARTESIAN_POINT ( 'NONE',  ( 1.500000000000000000, 3.245388524374309000E-015, -1.154700538379253700 ) ) ;
#241 = ADVANCED_FACE ( 'NONE', ( #347 ), #273, .F. ) ;
#242 = CARTESIAN_POINT ( 'NONE',  ( 0.0000000000000000000, 3.245388524374309000E-015, -1.154700538379253700 ) ) ;
#243 = ADVANCED_FACE ( 'NONE', ( #201 ), #278, .T. ) ;
#244 = ADVANCED_FACE ( 'NONE', ( #133, #215 ), #112, .T. ) ;
#245 = ADVANCED_FACE ( 'NONE', ( #19, #15 ), #259, .T. ) ;
#246 = CARTESIAN_POINT ( 'NONE',  ( 0.0000000000000000000, -0.9999999999999972200, 0.5773502691896236200 ) ) ;
#247 = ADVANCED_FACE ( 'NONE', ( #267, #258 ), #231, .T. ) ;
#248 = ADVANCED_FACE ( 'NONE', ( #265 ), #176, .T. ) ;
#249 = ADVANCED_FACE ( 'NONE', ( #275, #266 ), #184, .T. ) ;
#250 = ADVANCED_FACE ( 'NONE', ( #256 ), #183, .F. ) ;
#251 = CARTESIAN_POINT ( 'NONE',  ( 1.500000000000000000, 3.252606517456513300E-015, 1.154700538379249700 ) ) ;
#252 = CARTESIAN_POINT ( 'NONE',  ( 1.500000000000000000, -0.9999999999999972200, -0.5773502691896281700 ) ) ;
#253 = CARTESIAN_POINT ( 'NONE',  ( 1.500000000000000000, -0.9999999999999972200, -0.5773502691896281700 ) ) ;
#254 = PLANE ( 'NONE',  #344 ) ;
#255 = LINE ( 'NONE', #194, #190 ) ;
#256 = FACE_OUTER_BOUND ( 'NONE', #88, .T. ) ;
#257 = CARTESIAN_POINT ( 'NONE',  ( 1.500000000000000000, 1.000000000000003600, -0.5773502691896279500 ) ) ;
#258 = FACE_OUTER_BOUND ( 'NONE', #79, .T. ) ;
#259 = CYLINDRICAL_SURFACE ( 'NONE', #314, 2.000000000000000000 ) ;
#260 = DIRECTION ( 'NONE',  ( 0.0000000000000000000, 0.4999999999999998900, -0.8660254037844387100 ) ) ;
#261 = PLANE ( 'NONE',  #348 ) ;
#262 = DIRECTION ( 'NONE',  ( 0.0000000000000000000, 0.8660254037844387100, 0.4999999999999998900 ) ) ;
#263 = CARTESIAN_POINT ( 'NONE',  ( 1.500000000000000000, -0.9999999999999972200, 0.5773502691896236200 ) ) ;
#264 = DIRECTION ( 'NONE',  ( -0.0000000000000000000, 0.4999999999999997800, 0.8660254037844388200 ) ) ;
#265 = FACE_OUTER_BOUND ( 'NONE', #92, .T. ) ;
#266 = FACE_BOUND ( 'NONE', #141, .T. ) ;
#267 = FACE_BOUND ( 'NONE', #20, .T. ) ;
#268 = DIRECTION ( 'NONE',  ( 0.0000000000000000000, -0.8660254037844388200, 0.4999999999999997800 ) ) ;
#269 = PLANE ( 'NONE',  #360 ) ;
#270 = CARTESIAN_POINT ( 'NONE',  ( 1.500000000000000000, 1.000000000000003800, 0.5773502691896238400 ) ) ;
#271 = DIRECTION ( 'NONE',  ( -0.0000000000000000000, 1.000000000000000000, 0.0000000000000000000 ) ) ;
#272 = DIRECTION ( 'NONE',  ( 0.0000000000000000000, -0.0000000000000000000, 1.000000000000000000 ) ) ;
#273 = PLANE ( 'NONE',  #356 ) ;
#274 = VECTOR ( 'NONE', #128, 1000.000000000000000 ) ;
#275 = FACE_OUTER_BOUND ( 'NONE', #363, .T. ) ;
#276 = CARTESIAN_POINT ( 'NONE',  ( 1.500000000000000000, -0.9999999999999972200, 0.5773502691896236200 ) ) ;
#277 = DIRECTION ( 'NONE',  ( 0.0000000000000000000, 0.0000000000000000000, -1.000000000000000000 ) ) ;
#278 = PLANE ( 'NONE',  #354 ) ;
#279 = DIRECTION ( 'NONE',  ( 1.000000000000000000, 0.0000000000000000000, 0.0000000000000000000 ) ) ;
#280 = CARTESIAN_POINT ( 'NONE',  ( 1.500000000000000000, 1.000000000000003800, 0.5773502691896238400 ) ) ;
#281 = DIRECTION ( 'NONE',  ( 0.0000000000000000000, -0.5000000000000001100, 0.8660254037844387100 ) ) ;
#282 = ORIENTED_EDGE ( 'NONE', *, *, #337, .T. ) ;
#283 = SURFACE_STYLE_FILL_AREA ( #140 ) ;
#284 = DIRECTION ( 'NONE',  ( 0.0000000000000000000, -0.8660254037844386000, -0.5000000000000000000 ) ) ;
#285 = FILL_AREA_STYLE_COLOUR ( '', #300 ) ;
#286 = DIRECTION ( 'NONE',  ( 0.0000000000000000000, -0.4999999999999998300, -0.8660254037844387100 ) ) ;
#287 = DIRECTION ( 'NONE',  ( 0.0000000000000000000, 0.8660254037844387100, -0.4999999999999998300 ) ) ;
#288 = VERTEX_POINT ( 'NONE', #129 ) ;
#289 = ORIENTED_EDGE ( 'NONE', *, *, #341, .T. ) ;
#290 = DIRECTION ( 'NONE',  ( 0.0000000000000000000, 0.0000000000000000000, -1.000000000000000000 ) ) ;
#291 = CARTESIAN_POINT ( 'NONE',  ( 0.0000000000000000000, 0.0000000000000000000, 0.0000000000000000000 ) ) ;
#292 = DIRECTION ( 'NONE',  ( 1.000000000000000000, 0.0000000000000000000, 0.0000000000000000000 ) ) ;
#293 = SHAPE_DEFINITION_REPRESENTATION ( #18, #44 ) ;
#294 = LINE ( 'NONE', #115, #295 ) ;
#295 = VECTOR ( 'NONE', #117, 1000.000000000000000 ) ;
#296 = VECTOR ( 'NONE', #120, 1000.000000000000000 ) ;
#297 = PRODUCT_RELATED_PRODUCT_CATEGORY ( 'part', '', ( #72 ) ) ;
#298 = LINE ( 'NONE', #122, #299 ) ;
#299 = VECTOR ( 'NONE', #125, 1000.000000000000000 ) ;
#300 = COLOUR_RGB ( '',0.7764705882352941300, 0.7568627450980391900, 0.7372549019607843600 ) ;
#301 = EDGE_CURVE ( 'NONE', #76, #35, #239, .T. ) ;
#302 = EDGE_CURVE ( 'NONE', #39, #76, #222, .T. ) ;
#303 = EDGE_CURVE ( 'NONE', #39, #65, #255, .T. ) ;
#304 = EDGE_CURVE ( 'NONE', #39, #168, #209, .T. ) ;
#305 = EDGE_CURVE ( 'NONE', #105, #98, #180, .T. ) ;
#306 = EDGE_CURVE ( 'NONE', #311, #311, #147, .T. ) ;
#307 = EDGE_CURVE ( 'NONE', #288, #288, #36, .T. ) ;
#308 = EDGE_CURVE ( 'NONE', #49, #76, #10, .T. ) ;
#309 = VECTOR ( 'NONE', #114, 1000.000000000000000 ) ;
#310 = EDGE_CURVE ( 'NONE', #59, #28, #42, .T. ) ;
#311 = VERTEX_POINT ( 'NONE', #113 ) ;
#312 = PRODUCT_DEFINITION_FORMATION_WITH_SPECIFIED_SOURCE ( 'ANY', '', #72, .NOT_KNOWN. ) ;
#313 = AXIS2_PLACEMENT_3D ( 'NONE', #172, #174, #171 ) ;
#314 = AXIS2_PLACEMENT_3D ( 'NONE', #202, #204, #169 ) ;
#315 = AXIS2_PLACEMENT_3D ( 'NONE', #186, #189, #191 ) ;
#316 = AXIS2_PLACEMENT_3D ( 'NONE', #179, #185, #158 ) ;
#317 = AXIS2_PLACEMENT_3D ( 'NONE', #84, #83, #82 ) ;
#318 = AXIS2_PLACEMENT_3D ( 'NONE', #156, #106, #108 ) ;
#319 = STYLED_ITEM ( 'NONE', ( #208 ), #44 ) ;
#320 = PRESENTATION_LAYER_ASSIGNMENT (  '', '', ( #319 ) ) ;
#321 = PRESENTATION_LAYER_ASSIGNMENT (  '', '', ( #328 ) ) ;
#322 = VECTOR ( 'NONE', #80, 1000.000000000000000 ) ;
#323 = SURFACE_STYLE_FILL_AREA ( #203 ) ;
#324 = MECHANICAL_DESIGN_GEOMETRIC_PRESENTATION_REPRESENTATION (  '', ( #328 ), #327 ) ;
#325 = VECTOR ( 'NONE', #109, 1000.000000000000100 ) ;
#326 = ORIENTED_EDGE ( 'NONE', *, *, #310, .F. ) ;
#327 =( GEOMETRIC_REPRESENTATION_CONTEXT ( 3 ) GLOBAL_UNCERTAINTY_ASSIGNED_CONTEXT ( ( #14 ) ) GLOBAL_UNIT_ASSIGNED_CONTEXT ( ( #219, #220, #221 ) ) REPRESENTATION_CONTEXT ( 'NONE', 'WORKASPACE' ) );
#328 = STYLED_ITEM ( 'NONE', ( #52 ), #8 ) ;
#329 = EDGE_CURVE ( 'NONE', #27, #27, #26, .T. ) ;
#330 = EDGE_CURVE ( 'NONE', #65, #35, #336, .T. ) ;
#331 = EDGE_CURVE ( 'NONE', #238, #238, #23, .T. ) ;
#332 = EDGE_CURVE ( 'NONE', #59, #35, #342, .T. ) ;
#333 = EDGE_CURVE ( 'NONE', #28, #98, #30, .T. ) ;
#334 = LINE ( 'NONE', #73, #309 ) ;
#335 = EDGE_CURVE ( 'NONE', #48, #98, #334, .T. ) ;
#336 = LINE ( 'NONE', #162, #34 ) ;
#337 = EDGE_CURVE ( 'NONE', #65, #48, #294, .T. ) ;
#338 = EDGE_LOOP ( 'NONE', ( #4 ) ) ;
#339 = EDGE_CURVE ( 'NONE', #6, #105, #33, .T. ) ;
#340 = EDGE_CURVE ( 'NONE', #6, #28, #298, .T. ) ;
#341 = EDGE_CURVE ( 'NONE', #49, #6, #29, .T. ) ;
#342 = LINE ( 'NONE', #81, #325 ) ;
#343 = ORIENTED_EDGE ( 'NONE', *, *, #304, .T. ) ;
#344 = AXIS2_PLACEMENT_3D ( 'NONE', #257, #260, #262 ) ;
#345 = AXIS2_PLACEMENT_3D ( 'NONE', #252, #264, #268 ) ;
#346 = ORIENTED_EDGE ( 'NONE', *, *, #302, .F. ) ;
#347 = FACE_OUTER_BOUND ( 'NONE', #167, .T. ) ;
#348 = AXIS2_PLACEMENT_3D ( 'NONE', #263, #271, #272 ) ;
#349 =( GEOMETRIC_REPRESENTATION_CONTEXT ( 3 ) GLOBAL_UNCERTAINTY_ASSIGNED_CONTEXT ( ( #32 ) ) GLOBAL_UNIT_ASSIGNED_CONTEXT ( ( #145, #146, #149 ) ) REPRESENTATION_CONTEXT ( 'NONE', 'WORKASPACE' ) );
#350 = PRODUCT_DEFINITION ( 'UNKNOWN', '', #312, #96 ) ;
#351 = MECHANICAL_DESIGN_GEOMETRIC_PRESENTATION_REPRESENTATION (  '', ( #319 ), #349 ) ;
#352 =( GEOMETRIC_REPRESENTATION_CONTEXT ( 3 ) GLOBAL_UNCERTAINTY_ASSIGNED_CONTEXT ( ( #69 ) ) GLOBAL_UNIT_ASSIGNED_CONTEXT ( ( #135, #136, #137 ) ) REPRESENTATION_CONTEXT ( 'NONE', 'WORKASPACE' ) );
#353 = STYLED_ITEM ( 'NONE', ( #123 ), #245 ) ;
#354 = AXIS2_PLACEMENT_3D ( 'NONE', #280, #286, #287 ) ;
#355 = AXIS2_PLACEMENT_3D ( 'NONE', #291, #292, #290 ) ;
#356 = AXIS2_PLACEMENT_3D ( 'NONE', #276, #281, #284 ) ;
#357 = PRESENTATION_LAYER_ASSIGNMENT (  '', '', ( #353 ) ) ;
#358 =( GEOMETRIC_REPRESENTATION_CONTEXT ( 3 ) GLOBAL_UNCERTAINTY_ASSIGNED_CONTEXT ( ( #58 ) ) GLOBAL_UNIT_ASSIGNED_CONTEXT ( ( #64, #66, #166 ) ) REPRESENTATION_CONTEXT ( 'NONE', 'WORKASPACE' ) );
#359 = MECHANICAL_DESIGN_GEOMETRIC_PRESENTATION_REPRESENTATION (  '', ( #353 ), #358 ) ;
#360 = AXIS2_PLACEMENT_3D ( 'NONE', #270, #279, #277 ) ;
#361 = AXIS2_PLACEMENT_3D ( 'NONE', #163, #164, #165 ) ;
#362 = ORIENTED_EDGE ( 'NONE', *, *, #305, .F. ) ;
#363 = EDGE_LOOP ( 'NONE', ( #9 ) ) ;
ENDSEC;
END-ISO-10303-21;
