ISO-10303-21;
HEADER;
FILE_DESCRIPTION (( 'STEP AP214' ),
    '1' );
FILE_NAME ('1545-A.STEP',
    '2015-03-20T13:21:38',
    ( '' ),
    ( '' ),
    'SwSTEP 2.0',
    'SolidWorks 2014',
    '' );
FILE_SCHEMA (( 'AUTOMOTIVE_DESIGN' ));
ENDSEC;

DATA;
#1 = ORIENTED_EDGE ( 'NONE', *, *, #106, .T. ) ;
#2 = DIRECTION ( 'NONE',  ( 0.0000000000000000000, 0.0000000000000000000, -1.000000000000000000 ) ) ;
#3 = ORIENTED_EDGE ( 'NONE', *, *, #152, .T. ) ;
#4 = ORIENTED_EDGE ( 'NONE', *, *, #178, .F. ) ;
#5 = AXIS2_PLACEMENT_3D ( 'NONE', #99, #94, #81 ) ;
#6 = CYLINDRICAL_SURFACE ( 'NONE', #18, 1.600000000000000100 ) ;
#7 = SURFACE_STYLE_FILL_AREA ( #180 ) ;
#8 = AXIS2_PLACEMENT_3D ( 'NONE', #214, #165, #163 ) ;
#9 = DIRECTION ( 'NONE',  ( 0.0000000000000000000, 1.000000000000000000, 0.0000000000000000000 ) ) ;
#10 = PRODUCT ( '1545-A', '1545-A', '', ( #161 ) ) ;
#11 = ORIENTED_EDGE ( 'NONE', *, *, #169, .F. ) ;
#12 = AXIS2_PLACEMENT_3D ( 'NONE', #89, #96, #135 ) ;
#13 = CARTESIAN_POINT ( 'NONE',  ( 0.0000000000000000000, 0.0000000000000000000, 0.0000000000000000000 ) ) ;
#14 = CIRCLE ( 'NONE', #26, 3.000000000000000400 ) ;
#15 = CIRCLE ( 'NONE', #136, 1.600000000000000100 ) ;
#16 = ORIENTED_EDGE ( 'NONE', *, *, #83, .T. ) ;
#17 = VERTEX_POINT ( 'NONE', #184 ) ;
#18 = AXIS2_PLACEMENT_3D ( 'NONE', #86, #76, #101 ) ;
#19 = VERTEX_POINT ( 'NONE', #137 ) ;
#20 = AXIS2_PLACEMENT_3D ( 'NONE', #97, #118, #117 ) ;
#21 = ORIENTED_EDGE ( 'NONE', *, *, #178, .T. ) ;
#22 = CARTESIAN_POINT ( 'NONE',  ( 3.673940397442060400E-016, 0.0000000000000000000, 3.000000000000000400 ) ) ;
#23 = EDGE_LOOP ( 'NONE', ( #190, #109, #88, #3 ) ) ;
#24 = STYLED_ITEM ( 'NONE', ( #129 ), #126 ) ;
#25 = CARTESIAN_POINT ( 'NONE',  ( 3.673940397442060400E-016, 43.00000000000000000, 3.000000000000000400 ) ) ;
#26 = AXIS2_PLACEMENT_3D ( 'NONE', #123, #105, #119 ) ;
#27 = DIRECTION ( 'NONE',  ( 0.0000000000000000000, -0.0000000000000000000, 1.000000000000000000 ) ) ;
#28 = ORIENTED_EDGE ( 'NONE', *, *, #80, .F. ) ;
#29 =( GEOMETRIC_REPRESENTATION_CONTEXT ( 3 ) GLOBAL_UNCERTAINTY_ASSIGNED_CONTEXT ( ( #53 ) ) GLOBAL_UNIT_ASSIGNED_CONTEXT ( ( #147, #144, #140 ) ) REPRESENTATION_CONTEXT ( 'NONE', 'WORKASPACE' ) );
#30 = ORIENTED_EDGE ( 'NONE', *, *, #142, .T. ) ;
#31 = FACE_OUTER_BOUND ( 'NONE', #23, .T. ) ;
#32 = PLANE ( 'NONE',  #108 ) ;
#33 = EDGE_LOOP ( 'NONE', ( #28, #4, #58, #92 ) ) ;
#34 = LINE ( 'NONE', #138, #45 ) ;
#35 = MECHANICAL_DESIGN_GEOMETRIC_PRESENTATION_REPRESENTATION (  '', ( #49 ), #29 ) ;
#36 = UNCERTAINTY_MEASURE_WITH_UNIT (LENGTH_MEASURE( 1.000000000000000100E-005 ), #176, 'distance_accuracy_value', 'NONE');
#37 = CARTESIAN_POINT ( 'NONE',  ( 0.0000000000000000000, 0.0000000000000000000, 0.0000000000000000000 ) ) ;
#38 = PRODUCT_DEFINITION_SHAPE ( 'NONE', 'NONE',  #210 ) ;
#39 = PRESENTATION_LAYER_ASSIGNMENT (  '', '', ( #49 ) ) ;
#40 = CIRCLE ( 'NONE', #102, 3.000000000000000400 ) ;
#41 = VERTEX_POINT ( 'NONE', #22 ) ;
#42 = CARTESIAN_POINT ( 'NONE',  ( 0.0000000000000000000, 3.000000000000000000, 0.0000000000000000000 ) ) ;
#43 = AXIS2_PLACEMENT_3D ( 'NONE', #37, #57, #50 ) ;
#44 = DIRECTION ( 'NONE',  ( 0.0000000000000000000, 1.000000000000000000, 0.0000000000000000000 ) ) ;
#45 = VECTOR ( 'NONE', #139, 1000.000000000000000 ) ;
#46 = CIRCLE ( 'NONE', #124, 3.000000000000000400 ) ;
#47 = ORIENTED_EDGE ( 'NONE', *, *, #90, .F. ) ;
#48 = DIRECTION ( 'NONE',  ( -0.0000000000000000000, -1.000000000000000000, -0.0000000000000000000 ) ) ;
#49 = STYLED_ITEM ( 'NONE', ( #127 ), #78 ) ;
#50 = DIRECTION ( 'NONE',  ( 0.0000000000000000000, -0.0000000000000000000, 1.000000000000000000 ) ) ;
#51 = CARTESIAN_POINT ( 'NONE',  ( 0.0000000000000000000, 3.000000000000002700, -1.600000000000000100 ) ) ;
#52 = FACE_OUTER_BOUND ( 'NONE', #33, .T. ) ;
#53 = UNCERTAINTY_MEASURE_WITH_UNIT (LENGTH_MEASURE( 1.000000000000000100E-005 ), #147, 'distance_accuracy_value', 'NONE');
#54 = VERTEX_POINT ( 'NONE', #185 ) ;
#55 = PLANE ( 'NONE',  #43 ) ;
#56 = AXIS2_PLACEMENT_3D ( 'NONE', #84, #65, #85 ) ;
#57 = DIRECTION ( 'NONE',  ( 0.0000000000000000000, 1.000000000000000000, 0.0000000000000000000 ) ) ;
#58 = ORIENTED_EDGE ( 'NONE', *, *, #192, .T. ) ;
#59 = AXIS2_PLACEMENT_3D ( 'NONE', #172, #167, #166 ) ;
#60 = EDGE_LOOP ( 'NONE', ( #149, #209 ) ) ;
#61 = DIRECTION ( 'NONE',  ( -0.0000000000000000000, -1.000000000000000000, -0.0000000000000000000 ) ) ;
#62 = VECTOR ( 'NONE', #203, 1000.000000000000000 ) ;
#63 = FACE_OUTER_BOUND ( 'NONE', #66, .T. ) ;
#64 = EDGE_CURVE ( 'NONE', #100, #17, #111, .T. ) ;
#65 = DIRECTION ( 'NONE',  ( -0.0000000000000000000, -1.000000000000000000, -0.0000000000000000000 ) ) ;
#66 = EDGE_LOOP ( 'NONE', ( #71, #11 ) ) ;
#67 = ORIENTED_EDGE ( 'NONE', *, *, #80, .T. ) ;
#68 = LINE ( 'NONE', #197, #62 ) ;
#69 = CYLINDRICAL_SURFACE ( 'NONE', #112, 3.000000000000000400 ) ;
#70 = FACE_OUTER_BOUND ( 'NONE', #60, .T. ) ;
#71 = ORIENTED_EDGE ( 'NONE', *, *, #152, .F. ) ;
#72 = CYLINDRICAL_SURFACE ( 'NONE', #12, 1.600000000000000100 ) ;
#73 = CARTESIAN_POINT ( 'NONE',  ( 0.0000000000000000000, 43.00000000000000000, 0.0000000000000000000 ) ) ;
#74 = EDGE_LOOP ( 'NONE', ( #16, #30, #155, #195 ) ) ;
#75 = DIRECTION ( 'NONE',  ( 0.0000000000000000000, 0.0000000000000000000, -1.000000000000000000 ) ) ;
#76 = DIRECTION ( 'NONE',  ( -0.0000000000000000000, -1.000000000000000000, -0.0000000000000000000 ) ) ;
#77 = EDGE_LOOP ( 'NONE', ( #21, #1 ) ) ;
#78 = MANIFOLD_SOLID_BREP ( 'Boss-Extrude1', #212 ) ;
#79 = FACE_OUTER_BOUND ( 'NONE', #74, .T. ) ;
#80 = EDGE_CURVE ( 'NONE', #95, #100, #34, .T. ) ;
#81 = DIRECTION ( 'NONE',  ( 0.0000000000000000000, 0.0000000000000000000, 1.000000000000000000 ) ) ;
#82 = CIRCLE ( 'NONE', #20, 1.600000000000000100 ) ;
#83 = EDGE_CURVE ( 'NONE', #19, #107, #14, .T. ) ;
#84 = CARTESIAN_POINT ( 'NONE',  ( 0.0000000000000000000, 43.00000000000000000, 0.0000000000000000000 ) ) ;
#85 = DIRECTION ( 'NONE',  ( 0.0000000000000000000, 0.0000000000000000000, -1.000000000000000000 ) ) ;
#86 = CARTESIAN_POINT ( 'NONE',  ( 0.0000000000000000000, 43.00000000000000000, 0.0000000000000000000 ) ) ;
#87 = VECTOR ( 'NONE', #48, 1000.000000000000000 ) ;
#88 = ORIENTED_EDGE ( 'NONE', *, *, #98, .T. ) ;
#89 = CARTESIAN_POINT ( 'NONE',  ( 0.0000000000000000000, 43.00000000000000000, 0.0000000000000000000 ) ) ;
#90 = EDGE_CURVE ( 'NONE', #17, #100, #82, .T. ) ;
#91 = LINE ( 'NONE', #25, #87 ) ;
#92 = ORIENTED_EDGE ( 'NONE', *, *, #90, .T. ) ;
#93 = SHAPE_DEFINITION_REPRESENTATION ( #38, #126 ) ;
#94 = DIRECTION ( 'NONE',  ( -0.0000000000000000000, -1.000000000000000000, -0.0000000000000000000 ) ) ;
#95 = VERTEX_POINT ( 'NONE', #125 ) ;
#96 = DIRECTION ( 'NONE',  ( -0.0000000000000000000, -1.000000000000000000, -0.0000000000000000000 ) ) ;
#97 = CARTESIAN_POINT ( 'NONE',  ( 0.0000000000000000000, 0.0000000000000000000, 0.0000000000000000000 ) ) ;
#98 = EDGE_CURVE ( 'NONE', #19, #54, #164, .T. ) ;
#99 = CARTESIAN_POINT ( 'NONE',  ( 0.0000000000000000000, 3.000000000000002700, 0.0000000000000000000 ) ) ;
#100 = VERTEX_POINT ( 'NONE', #134 ) ;
#101 = DIRECTION ( 'NONE',  ( 0.0000000000000000000, 0.0000000000000000000, -1.000000000000000000 ) ) ;
#102 = AXIS2_PLACEMENT_3D ( 'NONE', #13, #9, #2 ) ;
#103 = PRODUCT_DEFINITION_CONTEXT ( 'detailed design', #160, 'design' ) ;
#104 = ORIENTED_EDGE ( 'NONE', *, *, #64, .F. ) ;
#105 = DIRECTION ( 'NONE',  ( -0.0000000000000000000, -1.000000000000000000, -0.0000000000000000000 ) ) ;
#106 = EDGE_CURVE ( 'NONE', #95, #141, #170, .T. ) ;
#107 = VERTEX_POINT ( 'NONE', #116 ) ;
#108 = AXIS2_PLACEMENT_3D ( 'NONE', #42, #44, #27 ) ;
#109 = ORIENTED_EDGE ( 'NONE', *, *, #186, .T. ) ;
#110 = FACE_BOUND ( 'NONE', #77, .T. ) ;
#111 = CIRCLE ( 'NONE', #59, 1.600000000000000100 ) ;
#112 = AXIS2_PLACEMENT_3D ( 'NONE', #73, #61, #75 ) ;
#113 = ADVANCED_FACE ( 'NONE', ( #52 ), #72, .F. ) ;
#114 = DIRECTION ( 'NONE',  ( -0.0000000000000000000, -1.000000000000000000, -0.0000000000000000000 ) ) ;
#115 = ADVANCED_FACE ( 'NONE', ( #151 ), #6, .F. ) ;
#116 = CARTESIAN_POINT ( 'NONE',  ( 3.673940397442060400E-016, 3.000000000000002700, 3.000000000000000400 ) ) ;
#117 = DIRECTION ( 'NONE',  ( 0.0000000000000000000, 0.0000000000000000000, -1.000000000000000000 ) ) ;
#118 = DIRECTION ( 'NONE',  ( -0.0000000000000000000, -1.000000000000000000, -0.0000000000000000000 ) ) ;
#119 = DIRECTION ( 'NONE',  ( 0.0000000000000000000, 0.0000000000000000000, 1.000000000000000000 ) ) ;
#120 = ADVANCED_FACE ( 'NONE', ( #79 ), #213, .T. ) ;
#121 = ADVANCED_FACE ( 'NONE', ( #31 ), #69, .T. ) ;
#122 = ADVANCED_FACE ( 'NONE', ( #153, #63 ), #55, .F. ) ;
#123 = CARTESIAN_POINT ( 'NONE',  ( 0.0000000000000000000, 3.000000000000002700, 0.0000000000000000000 ) ) ;
#124 = AXIS2_PLACEMENT_3D ( 'NONE', #211, #207, #205 ) ;
#125 = CARTESIAN_POINT ( 'NONE',  ( 1.959434878635765200E-016, 3.000000000000002700, 1.600000000000000100 ) ) ;
#126 = ADVANCED_BREP_SHAPE_REPRESENTATION ( '1545-A', ( #78, #8 ), #198 ) ;
#127 = PRESENTATION_STYLE_ASSIGNMENT (( #143 ) ) ;
#128 = ORIENTED_EDGE ( 'NONE', *, *, #106, .F. ) ;
#129 = PRESENTATION_STYLE_ASSIGNMENT (( #177 ) ) ;
#130 = AXIS2_PLACEMENT_3D ( 'NONE', #196, #194, #193 ) ;
#131 = CARTESIAN_POINT ( 'NONE',  ( 0.0000000000000000000, 43.00000000000000000, -3.000000000000000400 ) ) ;
#132 = ADVANCED_FACE ( 'NONE', ( #70, #110 ), #32, .T. ) ;
#133 = ORIENTED_EDGE ( 'NONE', *, *, #192, .F. ) ;
#134 = CARTESIAN_POINT ( 'NONE',  ( 1.959434878635765200E-016, 0.0000000000000000000, 1.600000000000000100 ) ) ;
#135 = DIRECTION ( 'NONE',  ( 0.0000000000000000000, 0.0000000000000000000, -1.000000000000000000 ) ) ;
#136 = AXIS2_PLACEMENT_3D ( 'NONE', #202, #201, #200 ) ;
#137 = CARTESIAN_POINT ( 'NONE',  ( 0.0000000000000000000, 3.000000000000002700, -3.000000000000000400 ) ) ;
#138 = CARTESIAN_POINT ( 'NONE',  ( 1.959434878635765200E-016, 43.00000000000000000, 1.600000000000000100 ) ) ;
#139 = DIRECTION ( 'NONE',  ( -0.0000000000000000000, -1.000000000000000000, -0.0000000000000000000 ) ) ;
#140 =( NAMED_UNIT ( * ) SI_UNIT ( $, .STERADIAN. ) SOLID_ANGLE_UNIT ( ) );
#141 = VERTEX_POINT ( 'NONE', #51 ) ;
#142 = EDGE_CURVE ( 'NONE', #107, #41, #91, .T. ) ;
#143 = SURFACE_STYLE_USAGE ( .BOTH. , #150 ) ;
#144 =( NAMED_UNIT ( * ) PLANE_ANGLE_UNIT ( ) SI_UNIT ( $, .RADIAN. ) );
#145 = ORIENTED_EDGE ( 'NONE', *, *, #64, .T. ) ;
#146 = CIRCLE ( 'NONE', #130, 3.000000000000000400 ) ;
#147 =( LENGTH_UNIT ( ) NAMED_UNIT ( * ) SI_UNIT ( .MILLI., .METRE. ) );
#148 = PRODUCT_RELATED_PRODUCT_CATEGORY ( 'part', '', ( #10 ) ) ;
#149 = ORIENTED_EDGE ( 'NONE', *, *, #83, .F. ) ;
#150 = SURFACE_SIDE_STYLE ('',( #173 ) ) ;
#151 = FACE_OUTER_BOUND ( 'NONE', #183, .T. ) ;
#152 = EDGE_CURVE ( 'NONE', #54, #41, #40, .T. ) ;
#153 = FACE_BOUND ( 'NONE', #158, .T. ) ;
#154 = FILL_AREA_STYLE ('',( #168 ) ) ;
#155 = ORIENTED_EDGE ( 'NONE', *, *, #169, .T. ) ;
#156 = PRODUCT_DEFINITION_FORMATION_WITH_SPECIFIED_SOURCE ( 'ANY', '', #10, .NOT_KNOWN. ) ;
#157 = VECTOR ( 'NONE', #114, 1000.000000000000000 ) ;
#158 = EDGE_LOOP ( 'NONE', ( #47, #104 ) ) ;
#159 = APPLICATION_PROTOCOL_DEFINITION ( 'draft international standard', 'automotive_design', 1998, #160 ) ;
#160 = APPLICATION_CONTEXT ( 'automotive_design' ) ;
#161 = PRODUCT_CONTEXT ( 'NONE', #181, 'mechanical' ) ;
#162 =( GEOMETRIC_REPRESENTATION_CONTEXT ( 3 ) GLOBAL_UNCERTAINTY_ASSIGNED_CONTEXT ( ( #36 ) ) GLOBAL_UNIT_ASSIGNED_CONTEXT ( ( #176, #174, #171 ) ) REPRESENTATION_CONTEXT ( 'NONE', 'WORKASPACE' ) );
#163 = DIRECTION ( 'NONE',  ( 1.000000000000000000, 0.0000000000000000000, 0.0000000000000000000 ) ) ;
#164 = LINE ( 'NONE', #131, #157 ) ;
#165 = DIRECTION ( 'NONE',  ( 0.0000000000000000000, 0.0000000000000000000, 1.000000000000000000 ) ) ;
#166 = DIRECTION ( 'NONE',  ( 0.0000000000000000000, 0.0000000000000000000, -1.000000000000000000 ) ) ;
#167 = DIRECTION ( 'NONE',  ( -0.0000000000000000000, -1.000000000000000000, -0.0000000000000000000 ) ) ;
#168 = FILL_AREA_STYLE_COLOUR ( '', #182 ) ;
#169 = EDGE_CURVE ( 'NONE', #41, #54, #46, .T. ) ;
#170 = CIRCLE ( 'NONE', #5, 1.600000000000000100 ) ;
#171 =( NAMED_UNIT ( * ) SI_UNIT ( $, .STERADIAN. ) SOLID_ANGLE_UNIT ( ) );
#172 = CARTESIAN_POINT ( 'NONE',  ( 0.0000000000000000000, 0.0000000000000000000, 0.0000000000000000000 ) ) ;
#173 = SURFACE_STYLE_FILL_AREA ( #154 ) ;
#174 =( NAMED_UNIT ( * ) PLANE_ANGLE_UNIT ( ) SI_UNIT ( $, .RADIAN. ) );
#175 = COLOUR_RGB ( '',0.7921568627450980000, 0.8196078431372548800, 0.9333333333333333500 ) ;
#176 =( LENGTH_UNIT ( ) NAMED_UNIT ( * ) SI_UNIT ( .MILLI., .METRE. ) );
#177 = SURFACE_STYLE_USAGE ( .BOTH. , #179 ) ;
#178 = EDGE_CURVE ( 'NONE', #141, #95, #15, .T. ) ;
#179 = SURFACE_SIDE_STYLE ('',( #7 ) ) ;
#180 = FILL_AREA_STYLE ('',( #199 ) ) ;
#181 = APPLICATION_CONTEXT ( 'automotive_design' ) ;
#182 = COLOUR_RGB ( '',0.7921568627450980000, 0.8196078431372548800, 0.9333333333333333500 ) ;
#183 = EDGE_LOOP ( 'NONE', ( #128, #67, #145, #133 ) ) ;
#184 = CARTESIAN_POINT ( 'NONE',  ( 0.0000000000000000000, 0.0000000000000000000, -1.600000000000000100 ) ) ;
#185 = CARTESIAN_POINT ( 'NONE',  ( 0.0000000000000000000, 0.0000000000000000000, -3.000000000000000400 ) ) ;
#186 = EDGE_CURVE ( 'NONE', #107, #19, #146, .T. ) ;
#187 = APPLICATION_PROTOCOL_DEFINITION ( 'draft international standard', 'automotive_design', 1998, #181 ) ;
#188 =( NAMED_UNIT ( * ) SI_UNIT ( $, .STERADIAN. ) SOLID_ANGLE_UNIT ( ) );
#189 =( NAMED_UNIT ( * ) PLANE_ANGLE_UNIT ( ) SI_UNIT ( $, .RADIAN. ) );
#190 = ORIENTED_EDGE ( 'NONE', *, *, #142, .F. ) ;
#191 =( LENGTH_UNIT ( ) NAMED_UNIT ( * ) SI_UNIT ( .MILLI., .METRE. ) );
#192 = EDGE_CURVE ( 'NONE', #141, #17, #68, .T. ) ;
#193 = DIRECTION ( 'NONE',  ( 0.0000000000000000000, 0.0000000000000000000, 1.000000000000000000 ) ) ;
#194 = DIRECTION ( 'NONE',  ( -0.0000000000000000000, -1.000000000000000000, -0.0000000000000000000 ) ) ;
#195 = ORIENTED_EDGE ( 'NONE', *, *, #98, .F. ) ;
#196 = CARTESIAN_POINT ( 'NONE',  ( 0.0000000000000000000, 3.000000000000002700, 0.0000000000000000000 ) ) ;
#197 = CARTESIAN_POINT ( 'NONE',  ( 0.0000000000000000000, 43.00000000000000000, -1.600000000000000100 ) ) ;
#198 =( GEOMETRIC_REPRESENTATION_CONTEXT ( 3 ) GLOBAL_UNCERTAINTY_ASSIGNED_CONTEXT ( ( #206 ) ) GLOBAL_UNIT_ASSIGNED_CONTEXT ( ( #191, #189, #188 ) ) REPRESENTATION_CONTEXT ( 'NONE', 'WORKASPACE' ) );
#199 = FILL_AREA_STYLE_COLOUR ( '', #175 ) ;
#200 = DIRECTION ( 'NONE',  ( 0.0000000000000000000, 0.0000000000000000000, 1.000000000000000000 ) ) ;
#201 = DIRECTION ( 'NONE',  ( -0.0000000000000000000, -1.000000000000000000, -0.0000000000000000000 ) ) ;
#202 = CARTESIAN_POINT ( 'NONE',  ( 0.0000000000000000000, 3.000000000000002700, 0.0000000000000000000 ) ) ;
#203 = DIRECTION ( 'NONE',  ( -0.0000000000000000000, -1.000000000000000000, -0.0000000000000000000 ) ) ;
#204 = PRESENTATION_LAYER_ASSIGNMENT (  '', '', ( #24 ) ) ;
#205 = DIRECTION ( 'NONE',  ( 0.0000000000000000000, 0.0000000000000000000, -1.000000000000000000 ) ) ;
#206 = UNCERTAINTY_MEASURE_WITH_UNIT (LENGTH_MEASURE( 1.000000000000000100E-005 ), #191, 'distance_accuracy_value', 'NONE');
#207 = DIRECTION ( 'NONE',  ( 0.0000000000000000000, 1.000000000000000000, 0.0000000000000000000 ) ) ;
#208 = MECHANICAL_DESIGN_GEOMETRIC_PRESENTATION_REPRESENTATION (  '', ( #24 ), #162 ) ;
#209 = ORIENTED_EDGE ( 'NONE', *, *, #186, .F. ) ;
#210 = PRODUCT_DEFINITION ( 'UNKNOWN', '', #156, #103 ) ;
#211 = CARTESIAN_POINT ( 'NONE',  ( 0.0000000000000000000, 0.0000000000000000000, 0.0000000000000000000 ) ) ;
#212 = CLOSED_SHELL ( 'NONE', ( #120, #115, #113, #121, #122, #132 ) ) ;
#213 = CYLINDRICAL_SURFACE ( 'NONE', #56, 3.000000000000000400 ) ;
#214 = CARTESIAN_POINT ( 'NONE',  ( 0.0000000000000000000, 0.0000000000000000000, 0.0000000000000000000 ) ) ;
ENDSEC;
END-ISO-10303-21;
