ISO-10303-21;
HEADER;
FILE_DESCRIPTION (( 'STEP AP214' ),
    '1' );
FILE_NAME ('1056-A2P-A.STEP',
    '2013-05-15T14:42:06',
    ( '3DAssist' ),
    ( '' ),
    'SwSTEP 2.0',
    'SolidWorks 2013',
    '' );
FILE_SCHEMA (( 'AUTOMOTIVE_DESIGN' ));
ENDSEC;

DATA;
#1 = VERTEX_POINT ( 'NONE', #86 ) ;
#2 = ADVANCED_FACE ( 'NONE', ( #29, #184 ), #56, .T. ) ;
#3 = COLOUR_RGB ( '',0.8274509803921568100, 0.6666666666666666300, 0.1294117647058823400 ) ;
#4 = CIRCLE ( 'NONE', #156, 4.400000000000004800 ) ;
#5 = EDGE_LOOP ( 'NONE', ( #107 ) ) ;
#6 = VERTEX_POINT ( 'NONE', #157 ) ;
#7 = VERTEX_POINT ( 'NONE', #77 ) ;
#8 = CONICAL_SURFACE ( 'NONE', #160, 5.100000000000000500, 0.7853981633974505000 ) ;
#9 = FACE_OUTER_BOUND ( 'NONE', #115, .T. ) ;
#10 = VERTEX_POINT ( 'NONE', #81 ) ;
#11 = ADVANCED_FACE ( 'NONE', ( #15, #9 ), #192, .T. ) ;
#12 = EDGE_CURVE ( 'NONE', #113, #113, #64, .T. ) ;
#13 = MECHANICAL_DESIGN_GEOMETRIC_PRESENTATION_REPRESENTATION (  '', ( #174 ), #173 ) ;
#14 = COLOUR_RGB ( '',0.6196078431372549200, 0.4078431372549019600, 0.2000000000000000100 ) ;
#15 = FACE_BOUND ( 'NONE', #121, .T. ) ;
#16 = FACE_BOUND ( 'NONE', #119, .T. ) ;
#17 = CIRCLE ( 'NONE', #153, 5.100000000000000500 ) ;
#18 = CIRCLE ( 'NONE', #151, 4.399999999999997700 ) ;
#19 = CIRCLE ( 'NONE', #150, 5.500000000000000000 ) ;
#20 = VERTEX_POINT ( 'NONE', #85 ) ;
#21 = PRESENTATION_STYLE_ASSIGNMENT (( #96 ) ) ;
#22 = CIRCLE ( 'NONE', #149, 4.000000000000000000 ) ;
#23 = CONICAL_SURFACE ( 'NONE', #168, 4.399999999999997700, 0.7853981633974482800 ) ;
#24 = SHAPE_DEFINITION_REPRESENTATION ( #197, #35 ) ;
#25 = EDGE_LOOP ( 'NONE', ( #109 ) ) ;
#26 = UNCERTAINTY_MEASURE_WITH_UNIT (LENGTH_MEASURE( 1.000000000000000100E-005 ), #97, 'distance_accuracy_value', 'NONE');
#27 = PRODUCT ( '1056-A2P-A', '1056-A2P-A', '', ( #102 ) ) ;
#28 = FACE_OUTER_BOUND ( 'NONE', #130, .T. ) ;
#29 = FACE_BOUND ( 'NONE', #110, .T. ) ;
#30 = EDGE_LOOP ( 'NONE', ( #193 ) ) ;
#31 = EDGE_LOOP ( 'NONE', ( #50 ) ) ;
#32 = CONICAL_SURFACE ( 'NONE', #172, 4.000000000000000000, 0.7853981633974439500 ) ;
#33 = PRESENTATION_LAYER_ASSIGNMENT (  '', '', ( #174 ) ) ;
#34 = PRODUCT_DEFINITION ( 'UNKNOWN', '', #128, #61 ) ;
#35 = ADVANCED_BREP_SHAPE_REPRESENTATION ( '1056-A2P-A', ( #48, #129 ), #143 ) ;
#36 = UNCERTAINTY_MEASURE_WITH_UNIT (LENGTH_MEASURE( 1.000000000000000100E-005 ), #89, 'distance_accuracy_value', 'NONE');
#37 = ORIENTED_EDGE ( 'NONE', *, *, #189, .T. ) ;
#38 = UNCERTAINTY_MEASURE_WITH_UNIT (LENGTH_MEASURE( 1.000000000000000100E-005 ), #212, 'distance_accuracy_value', 'NONE');
#39 = FACE_OUTER_BOUND ( 'NONE', #199, .T. ) ;
#40 = SURFACE_STYLE_FILL_AREA ( #94 ) ;
#41 = FACE_OUTER_BOUND ( 'NONE', #5, .T. ) ;
#42 = FACE_BOUND ( 'NONE', #31, .T. ) ;
#43 = CYLINDRICAL_SURFACE ( 'NONE', #162, 5.500000000000000000 ) ;
#44 = CLOSED_SHELL ( 'NONE', ( #11, #126, #59, #54, #117, #2, #76, #124 ) ) ;
#45 = CIRCLE ( 'NONE', #147, 4.000000000000000000 ) ;
#46 = FACE_OUTER_BOUND ( 'NONE', #66, .T. ) ;
#47 = CYLINDRICAL_SURFACE ( 'NONE', #164, 4.000000000000000000 ) ;
#48 = MANIFOLD_SOLID_BREP ( 'Chamfer1', #44 ) ;
#49 = FACE_OUTER_BOUND ( 'NONE', #88, .T. ) ;
#50 = ORIENTED_EDGE ( 'NONE', *, *, #190, .F. ) ;
#51 = FACE_BOUND ( 'NONE', #65, .T. ) ;
#52 = FACE_OUTER_BOUND ( 'NONE', #125, .T. ) ;
#53 = VERTEX_POINT ( 'NONE', #84 ) ;
#54 = ADVANCED_FACE ( 'NONE', ( #58, #57 ), #47, .F. ) ;
#55 = PRESENTATION_STYLE_ASSIGNMENT (( #211 ) ) ;
#56 = CONICAL_SURFACE ( 'NONE', #180, 5.500000000000000000, 0.7853981633974418400 ) ;
#57 = FACE_OUTER_BOUND ( 'NONE', #118, .T. ) ;
#58 = FACE_OUTER_BOUND ( 'NONE', #116, .T. ) ;
#59 = ADVANCED_FACE ( 'NONE', ( #52, #46 ), #43, .T. ) ;
#60 = FACE_BOUND ( 'NONE', #25, .T. ) ;
#61 = PRODUCT_DEFINITION_CONTEXT ( 'detailed design', #103, 'design' ) ;
#62 = SURFACE_STYLE_FILL_AREA ( #206 ) ;
#63 = ORIENTED_EDGE ( 'NONE', *, *, #12, .T. ) ;
#64 = CIRCLE ( 'NONE', #179, 5.500000000000000000 ) ;
#65 = EDGE_LOOP ( 'NONE', ( #108 ) ) ;
#66 = EDGE_LOOP ( 'NONE', ( #112 ) ) ;
#67 = DIRECTION ( 'NONE',  ( 0.0000000000000000000, 0.0000000000000000000, -1.000000000000000000 ) ) ;
#68 = CARTESIAN_POINT ( 'NONE',  ( 5.500000000000000000, 0.0000000000000000000, -14.59999999999999400 ) ) ;
#69 = CARTESIAN_POINT ( 'NONE',  ( 0.0000000000000000000, 0.0000000000000000000, -14.60000000000000100 ) ) ;
#70 = DIRECTION ( 'NONE',  ( -0.0000000000000000000, -0.0000000000000000000, -1.000000000000000000 ) ) ;
#71 = DIRECTION ( 'NONE',  ( 1.000000000000000000, 0.0000000000000000000, 0.0000000000000000000 ) ) ;
#72 = CARTESIAN_POINT ( 'NONE',  ( 0.0000000000000000000, 0.0000000000000000000, 0.0000000000000000000 ) ) ;
#73 = CARTESIAN_POINT ( 'NONE',  ( 0.0000000000000000000, 0.0000000000000000000, 14.59999999999999100 ) ) ;
#74 = DIRECTION ( 'NONE',  ( 0.0000000000000000000, 0.0000000000000000000, 1.000000000000000000 ) ) ;
#75 = DIRECTION ( 'NONE',  ( 1.000000000000000000, 0.0000000000000000000, 0.0000000000000000000 ) ) ;
#76 = ADVANCED_FACE ( 'NONE', ( #49, #51 ), #32, .F. ) ;
#77 = CARTESIAN_POINT ( 'NONE',  ( 5.100000000000000500, 0.0000000000000000000, -15.00000000000000000 ) ) ;
#78 = CARTESIAN_POINT ( 'NONE',  ( 0.0000000000000000000, 0.0000000000000000000, 15.00000000000000000 ) ) ;
#79 = DIRECTION ( 'NONE',  ( 0.0000000000000000000, 0.0000000000000000000, 1.000000000000000000 ) ) ;
#80 = DIRECTION ( 'NONE',  ( 1.000000000000000000, 0.0000000000000000000, 0.0000000000000000000 ) ) ;
#81 = CARTESIAN_POINT ( 'NONE',  ( 4.399999999999997700, 0.0000000000000000000, -15.00000000000000000 ) ) ;
#82 = ORIENTED_EDGE ( 'NONE', *, *, #182, .F. ) ;
#83 = CARTESIAN_POINT ( 'NONE',  ( 5.500000000000000000, 0.0000000000000000000, 14.60000000000000100 ) ) ;
#84 = CARTESIAN_POINT ( 'NONE',  ( 4.000000000000000000, 0.0000000000000000000, -14.60000000000000100 ) ) ;
#85 = CARTESIAN_POINT ( 'NONE',  ( 4.000000000000000000, 0.0000000000000000000, 14.59999999999999100 ) ) ;
#86 = CARTESIAN_POINT ( 'NONE',  ( 5.100000000000000500, 0.0000000000000000000, 15.00000000000000000 ) ) ;
#87 = FILL_AREA_STYLE_COLOUR ( '', #14 ) ;
#88 = EDGE_LOOP ( 'NONE', ( #111 ) ) ;
#89 =( LENGTH_UNIT ( ) NAMED_UNIT ( * ) SI_UNIT ( .MILLI., .METRE. ) );
#90 =( NAMED_UNIT ( * ) PLANE_ANGLE_UNIT ( ) SI_UNIT ( $, .RADIAN. ) );
#91 =( NAMED_UNIT ( * ) SI_UNIT ( $, .STERADIAN. ) SOLID_ANGLE_UNIT ( ) );
#92 = APPLICATION_PROTOCOL_DEFINITION ( 'draft international standard', 'automotive_design', 1998, #93 ) ;
#93 = APPLICATION_CONTEXT ( 'automotive_design' ) ;
#94 = FILL_AREA_STYLE ('',( #87 ) ) ;
#95 = SURFACE_SIDE_STYLE ('',( #40 ) ) ;
#96 = SURFACE_STYLE_USAGE ( .BOTH. , #95 ) ;
#97 =( LENGTH_UNIT ( ) NAMED_UNIT ( * ) SI_UNIT ( .MILLI., .METRE. ) );
#98 =( NAMED_UNIT ( * ) PLANE_ANGLE_UNIT ( ) SI_UNIT ( $, .RADIAN. ) );
#99 =( NAMED_UNIT ( * ) SI_UNIT ( $, .STERADIAN. ) SOLID_ANGLE_UNIT ( ) );
#100 = DIRECTION ( 'NONE',  ( 0.0000000000000000000, 0.0000000000000000000, 1.000000000000000000 ) ) ;
#101 = DIRECTION ( 'NONE',  ( 1.000000000000000000, 0.0000000000000000000, 0.0000000000000000000 ) ) ;
#102 = PRODUCT_CONTEXT ( 'NONE', #93, 'mechanical' ) ;
#103 = APPLICATION_CONTEXT ( 'automotive_design' ) ;
#104 = APPLICATION_PROTOCOL_DEFINITION ( 'draft international standard', 'automotive_design', 1998, #103 ) ;
#105 = ORIENTED_EDGE ( 'NONE', *, *, #188, .T. ) ;
#106 = ORIENTED_EDGE ( 'NONE', *, *, #181, .T. ) ;
#107 = ORIENTED_EDGE ( 'NONE', *, *, #185, .F. ) ;
#108 = ORIENTED_EDGE ( 'NONE', *, *, #189, .F. ) ;
#109 = ORIENTED_EDGE ( 'NONE', *, *, #188, .F. ) ;
#110 = EDGE_LOOP ( 'NONE', ( #82 ) ) ;
#111 = ORIENTED_EDGE ( 'NONE', *, *, #181, .F. ) ;
#112 = ORIENTED_EDGE ( 'NONE', *, *, #185, .T. ) ;
#113 = VERTEX_POINT ( 'NONE', #68 ) ;
#114 = CIRCLE ( 'NONE', #145, 5.100000000000000500 ) ;
#115 = EDGE_LOOP ( 'NONE', ( #163 ) ) ;
#116 = EDGE_LOOP ( 'NONE', ( #105 ) ) ;
#117 = ADVANCED_FACE ( 'NONE', ( #60, #39 ), #23, .F. ) ;
#118 = EDGE_LOOP ( 'NONE', ( #37 ) ) ;
#119 = EDGE_LOOP ( 'NONE', ( #186 ) ) ;
#120 = VERTEX_POINT ( 'NONE', #83 ) ;
#121 = EDGE_LOOP ( 'NONE', ( #106 ) ) ;
#122 = CARTESIAN_POINT ( 'NONE',  ( 0.0000000000000000000, 0.0000000000000000000, 14.60000000000000100 ) ) ;
#123 = DIRECTION ( 'NONE',  ( 1.000000000000000000, 0.0000000000000000000, 0.0000000000000000000 ) ) ;
#124 = ADVANCED_FACE ( 'NONE', ( #41, #42 ), #8, .T. ) ;
#125 = EDGE_LOOP ( 'NONE', ( #63 ) ) ;
#126 = ADVANCED_FACE ( 'NONE', ( #16, #28 ), #152, .F. ) ;
#127 = PRODUCT_RELATED_PRODUCT_CATEGORY ( 'part', '', ( #27 ) ) ;
#128 = PRODUCT_DEFINITION_FORMATION_WITH_SPECIFIED_SOURCE ( 'ANY', '', #27, .NOT_KNOWN. ) ;
#129 = AXIS2_PLACEMENT_3D ( 'NONE', #72, #100, #101 ) ;
#130 = EDGE_LOOP ( 'NONE', ( #202 ) ) ;
#131 =( GEOMETRIC_REPRESENTATION_CONTEXT ( 3 ) GLOBAL_UNCERTAINTY_ASSIGNED_CONTEXT ( ( #26 ) ) GLOBAL_UNIT_ASSIGNED_CONTEXT ( ( #97, #98, #99 ) ) REPRESENTATION_CONTEXT ( 'NONE', 'WORKASPACE' ) );
#132 = DIRECTION ( 'NONE',  ( -0.0000000000000000000, -0.0000000000000000000, -1.000000000000000000 ) ) ;
#133 = MECHANICAL_DESIGN_GEOMETRIC_PRESENTATION_REPRESENTATION (  '', ( #137 ), #131 ) ;
#134 = DIRECTION ( 'NONE',  ( 1.000000000000000000, 0.0000000000000000000, 0.0000000000000000000 ) ) ;
#135 = PRESENTATION_LAYER_ASSIGNMENT (  '', '', ( #137 ) ) ;
#136 = CARTESIAN_POINT ( 'NONE',  ( 0.0000000000000000000, 0.0000000000000000000, 14.59999999999999100 ) ) ;
#137 = STYLED_ITEM ( 'NONE', ( #21 ), #35 ) ;
#138 = DIRECTION ( 'NONE',  ( 0.0000000000000000000, 0.0000000000000000000, 1.000000000000000000 ) ) ;
#139 = DIRECTION ( 'NONE',  ( -0.0000000000000000000, -0.0000000000000000000, -1.000000000000000000 ) ) ;
#140 = CARTESIAN_POINT ( 'NONE',  ( 0.0000000000000000000, 0.0000000000000000000, -15.00000000000000000 ) ) ;
#141 = DIRECTION ( 'NONE',  ( -1.000000000000000000, 0.0000000000000000000, 0.0000000000000000000 ) ) ;
#142 = CARTESIAN_POINT ( 'NONE',  ( 0.0000000000000000000, 0.0000000000000000000, -15.00000000000000000 ) ) ;
#143 =( GEOMETRIC_REPRESENTATION_CONTEXT ( 3 ) GLOBAL_UNCERTAINTY_ASSIGNED_CONTEXT ( ( #36 ) ) GLOBAL_UNIT_ASSIGNED_CONTEXT ( ( #89, #90, #91 ) ) REPRESENTATION_CONTEXT ( 'NONE', 'WORKASPACE' ) );
#144 = CARTESIAN_POINT ( 'NONE',  ( 0.0000000000000000000, 0.0000000000000000000, 15.00000000000000000 ) ) ;
#145 = AXIS2_PLACEMENT_3D ( 'NONE', #78, #79, #80 ) ;
#146 = DIRECTION ( 'NONE',  ( 0.0000000000000000000, 0.0000000000000000000, -1.000000000000000000 ) ) ;
#147 = AXIS2_PLACEMENT_3D ( 'NONE', #73, #74, #75 ) ;
#148 = DIRECTION ( 'NONE',  ( 0.0000000000000000000, 0.0000000000000000000, 1.000000000000000000 ) ) ;
#149 = AXIS2_PLACEMENT_3D ( 'NONE', #69, #70, #71 ) ;
#150 = AXIS2_PLACEMENT_3D ( 'NONE', #122, #67, #123 ) ;
#151 = AXIS2_PLACEMENT_3D ( 'NONE', #169, #170, #171 ) ;
#152 = PLANE ( 'NONE',  #155 ) ;
#153 = AXIS2_PLACEMENT_3D ( 'NONE', #166, #167, #165 ) ;
#154 = DIRECTION ( 'NONE',  ( 1.000000000000000000, 0.0000000000000000000, -0.0000000000000000000 ) ) ;
#155 = AXIS2_PLACEMENT_3D ( 'NONE', #140, #148, #154 ) ;
#156 = AXIS2_PLACEMENT_3D ( 'NONE', #158, #159, #161 ) ;
#157 = CARTESIAN_POINT ( 'NONE',  ( 4.400000000000004800, 0.0000000000000000000, 15.00000000000000000 ) ) ;
#158 = CARTESIAN_POINT ( 'NONE',  ( 0.0000000000000000000, 0.0000000000000000000, 15.00000000000000000 ) ) ;
#159 = DIRECTION ( 'NONE',  ( -0.0000000000000000000, -0.0000000000000000000, -1.000000000000000000 ) ) ;
#160 = AXIS2_PLACEMENT_3D ( 'NONE', #144, #146, #187 ) ;
#161 = DIRECTION ( 'NONE',  ( 1.000000000000000000, 0.0000000000000000000, 0.0000000000000000000 ) ) ;
#162 = AXIS2_PLACEMENT_3D ( 'NONE', #176, #132, #178 ) ;
#163 = ORIENTED_EDGE ( 'NONE', *, *, #190, .T. ) ;
#164 = AXIS2_PLACEMENT_3D ( 'NONE', #203, #204, #201 ) ;
#165 = DIRECTION ( 'NONE',  ( 1.000000000000000000, 0.0000000000000000000, 0.0000000000000000000 ) ) ;
#166 = CARTESIAN_POINT ( 'NONE',  ( 0.0000000000000000000, 0.0000000000000000000, -15.00000000000000000 ) ) ;
#167 = DIRECTION ( 'NONE',  ( -0.0000000000000000000, -0.0000000000000000000, -1.000000000000000000 ) ) ;
#168 = AXIS2_PLACEMENT_3D ( 'NONE', #142, #139, #141 ) ;
#169 = CARTESIAN_POINT ( 'NONE',  ( 0.0000000000000000000, 0.0000000000000000000, -15.00000000000000000 ) ) ;
#170 = DIRECTION ( 'NONE',  ( 0.0000000000000000000, 0.0000000000000000000, 1.000000000000000000 ) ) ;
#171 = DIRECTION ( 'NONE',  ( 1.000000000000000000, 0.0000000000000000000, 0.0000000000000000000 ) ) ;
#172 = AXIS2_PLACEMENT_3D ( 'NONE', #136, #138, #134 ) ;
#173 =( GEOMETRIC_REPRESENTATION_CONTEXT ( 3 ) GLOBAL_UNCERTAINTY_ASSIGNED_CONTEXT ( ( #38 ) ) GLOBAL_UNIT_ASSIGNED_CONTEXT ( ( #212, #213, #214 ) ) REPRESENTATION_CONTEXT ( 'NONE', 'WORKASPACE' ) );
#174 = STYLED_ITEM ( 'NONE', ( #55 ), #48 ) ;
#175 = AXIS2_PLACEMENT_3D ( 'NONE', #195, #191, #200 ) ;
#176 = CARTESIAN_POINT ( 'NONE',  ( 0.0000000000000000000, 0.0000000000000000000, 15.00000000000000000 ) ) ;
#177 = ORIENTED_EDGE ( 'NONE', *, *, #183, .F. ) ;
#178 = DIRECTION ( 'NONE',  ( -1.000000000000000000, 0.0000000000000000000, 0.0000000000000000000 ) ) ;
#179 = AXIS2_PLACEMENT_3D ( 'NONE', #207, #208, #209 ) ;
#180 = AXIS2_PLACEMENT_3D ( 'NONE', #196, #194, #198 ) ;
#181 = EDGE_CURVE ( 'NONE', #6, #6, #4, .T. ) ;
#182 = EDGE_CURVE ( 'NONE', #7, #7, #17, .T. ) ;
#183 = EDGE_CURVE ( 'NONE', #10, #10, #18, .T. ) ;
#184 = FACE_OUTER_BOUND ( 'NONE', #30, .T. ) ;
#185 = EDGE_CURVE ( 'NONE', #120, #120, #19, .T. ) ;
#186 = ORIENTED_EDGE ( 'NONE', *, *, #183, .T. ) ;
#187 = DIRECTION ( 'NONE',  ( -1.000000000000000000, 0.0000000000000000000, 0.0000000000000000000 ) ) ;
#188 = EDGE_CURVE ( 'NONE', #53, #53, #22, .T. ) ;
#189 = EDGE_CURVE ( 'NONE', #20, #20, #45, .T. ) ;
#190 = EDGE_CURVE ( 'NONE', #1, #1, #114, .T. ) ;
#191 = DIRECTION ( 'NONE',  ( 0.0000000000000000000, 0.0000000000000000000, 1.000000000000000000 ) ) ;
#192 = PLANE ( 'NONE',  #175 ) ;
#193 = ORIENTED_EDGE ( 'NONE', *, *, #12, .F. ) ;
#194 = DIRECTION ( 'NONE',  ( -0.0000000000000000000, -0.0000000000000000000, 1.000000000000000000 ) ) ;
#195 = CARTESIAN_POINT ( 'NONE',  ( 0.0000000000000000000, 0.0000000000000000000, 15.00000000000000000 ) ) ;
#196 = CARTESIAN_POINT ( 'NONE',  ( 0.0000000000000000000, 0.0000000000000000000, -14.59999999999999400 ) ) ;
#197 = PRODUCT_DEFINITION_SHAPE ( 'NONE', 'NONE',  #34 ) ;
#198 = DIRECTION ( 'NONE',  ( 1.000000000000000000, 0.0000000000000000000, 0.0000000000000000000 ) ) ;
#199 = EDGE_LOOP ( 'NONE', ( #177 ) ) ;
#200 = DIRECTION ( 'NONE',  ( 1.000000000000000000, 0.0000000000000000000, -0.0000000000000000000 ) ) ;
#201 = DIRECTION ( 'NONE',  ( -1.000000000000000000, 0.0000000000000000000, 0.0000000000000000000 ) ) ;
#202 = ORIENTED_EDGE ( 'NONE', *, *, #182, .T. ) ;
#203 = CARTESIAN_POINT ( 'NONE',  ( 0.0000000000000000000, 0.0000000000000000000, 15.00000000000000000 ) ) ;
#204 = DIRECTION ( 'NONE',  ( -0.0000000000000000000, -0.0000000000000000000, -1.000000000000000000 ) ) ;
#205 = FILL_AREA_STYLE_COLOUR ( '', #3 ) ;
#206 = FILL_AREA_STYLE ('',( #205 ) ) ;
#207 = CARTESIAN_POINT ( 'NONE',  ( 0.0000000000000000000, 0.0000000000000000000, -14.59999999999999400 ) ) ;
#208 = DIRECTION ( 'NONE',  ( -0.0000000000000000000, -0.0000000000000000000, 1.000000000000000000 ) ) ;
#209 = DIRECTION ( 'NONE',  ( 1.000000000000000000, 0.0000000000000000000, 0.0000000000000000000 ) ) ;
#210 = SURFACE_SIDE_STYLE ('',( #62 ) ) ;
#211 = SURFACE_STYLE_USAGE ( .BOTH. , #210 ) ;
#212 =( LENGTH_UNIT ( ) NAMED_UNIT ( * ) SI_UNIT ( .MILLI., .METRE. ) );
#213 =( NAMED_UNIT ( * ) PLANE_ANGLE_UNIT ( ) SI_UNIT ( $, .RADIAN. ) );
#214 =( NAMED_UNIT ( * ) SI_UNIT ( $, .STERADIAN. ) SOLID_ANGLE_UNIT ( ) );
ENDSEC;
END-ISO-10303-21;
