ISO-10303-21;
HEADER;
FILE_DESCRIPTION (( 'STEP AP214' ),
    '1' );
FILE_NAME ('1046-A2P-A.STEP',
    '2013-05-15T14:41:05',
    ( '3DAssist' ),
    ( '' ),
    'SwSTEP 2.0',
    'SolidWorks 2013',
    '' );
FILE_SCHEMA (( 'AUTOMOTIVE_DESIGN' ));
ENDSEC;

DATA;
#1 = EDGE_LOOP ( 'NONE', ( #57 ) ) ;
#2 = CARTESIAN_POINT ( 'NONE',  ( 2.499999999999974200, 0.0000000000000000000, -267.0000000000000000 ) ) ;
#3 = UNCERTAINTY_MEASURE_WITH_UNIT (LENGTH_MEASURE( 1.000000000000000100E-005 ), #123, 'distance_accuracy_value', 'NONE');
#4 = SURFACE_STYLE_FILL_AREA ( #77 ) ;
#5 = VERTEX_POINT ( 'NONE', #80 ) ;
#6 = DIRECTION ( 'NONE',  ( 1.000000000000000000, 0.0000000000000000000, 0.0000000000000000000 ) ) ;
#7 = CLOSED_SHELL ( 'NONE', ( #87, #90, #38, #121, #44 ) ) ;
#8 = APPLICATION_CONTEXT ( 'automotive_design' ) ;
#9 = VERTEX_POINT ( 'NONE', #2 ) ;
#10 = FILL_AREA_STYLE_COLOUR ( '', #74 ) ;
#11 = COLOUR_RGB ( '',0.7529411764705882200, 0.7529411764705882200, 0.7529411764705882200 ) ;
#12 = UNCERTAINTY_MEASURE_WITH_UNIT (LENGTH_MEASURE( 1.000000000000000100E-005 ), #23, 'distance_accuracy_value', 'NONE');
#13 = CARTESIAN_POINT ( 'NONE',  ( 0.0000000000000000000, 0.0000000000000000000, -267.0000000000000000 ) ) ;
#14 = DIRECTION ( 'NONE',  ( -1.000000000000000000, 0.0000000000000000000, 0.0000000000000000000 ) ) ;
#15 = PLANE ( 'NONE',  #122 ) ;
#16 = DIRECTION ( 'NONE',  ( 1.000000000000000000, 0.0000000000000000000, -0.0000000000000000000 ) ) ;
#17 = CARTESIAN_POINT ( 'NONE',  ( 0.0000000000000000000, 0.0000000000000000000, 0.0000000000000000000 ) ) ;
#18 = DIRECTION ( 'NONE',  ( 0.0000000000000000000, 0.0000000000000000000, 1.000000000000000000 ) ) ;
#19 = CARTESIAN_POINT ( 'NONE',  ( 0.0000000000000000000, 0.0000000000000000000, 0.0000000000000000000 ) ) ;
#20 = ORIENTED_EDGE ( 'NONE', *, *, #125, .T. ) ;
#21 = SURFACE_STYLE_USAGE ( .BOTH. , #50 ) ;
#22 = DIRECTION ( 'NONE',  ( 0.0000000000000000000, 0.0000000000000000000, -1.000000000000000000 ) ) ;
#23 =( LENGTH_UNIT ( ) NAMED_UNIT ( * ) SI_UNIT ( .MILLI., .METRE. ) );
#24 =( NAMED_UNIT ( * ) PLANE_ANGLE_UNIT ( ) SI_UNIT ( $, .RADIAN. ) );
#25 = PRODUCT_DEFINITION_SHAPE ( 'NONE', 'NONE',  #131 ) ;
#26 = DIRECTION ( 'NONE',  ( -0.0000000000000000000, -0.0000000000000000000, 1.000000000000000000 ) ) ;
#27 =( LENGTH_UNIT ( ) NAMED_UNIT ( * ) SI_UNIT ( .MILLI., .METRE. ) );
#28 =( NAMED_UNIT ( * ) SI_UNIT ( $, .STERADIAN. ) SOLID_ANGLE_UNIT ( ) );
#29 = PRODUCT ( '1046-A2P-A', '1046-A2P-A', '', ( #35 ) ) ;
#30 =( NAMED_UNIT ( * ) PLANE_ANGLE_UNIT ( ) SI_UNIT ( $, .RADIAN. ) );
#31 = SURFACE_STYLE_USAGE ( .BOTH. , #136 ) ;
#32 = DIRECTION ( 'NONE',  ( 1.000000000000000000, 0.0000000000000000000, 0.0000000000000000000 ) ) ;
#33 = DIRECTION ( 'NONE',  ( 0.0000000000000000000, 0.0000000000000000000, 1.000000000000000000 ) ) ;
#34 = DIRECTION ( 'NONE',  ( 1.000000000000000000, 0.0000000000000000000, 0.0000000000000000000 ) ) ;
#35 = PRODUCT_CONTEXT ( 'NONE', #8, 'mechanical' ) ;
#36 = APPLICATION_CONTEXT ( 'automotive_design' ) ;
#37 = APPLICATION_PROTOCOL_DEFINITION ( 'draft international standard', 'automotive_design', 1998, #36 ) ;
#38 = ADVANCED_FACE ( 'NONE', ( #53 ), #15, .T. ) ;
#39 = CARTESIAN_POINT ( 'NONE',  ( 0.0000000000000000000, 0.0000000000000000000, -0.5000000000000004400 ) ) ;
#40 = PRESENTATION_STYLE_ASSIGNMENT (( #31 ) ) ;
#41 = DIRECTION ( 'NONE',  ( 1.000000000000000000, 0.0000000000000000000, 0.0000000000000000000 ) ) ;
#42 = FILL_AREA_STYLE ('',( #10 ) ) ;
#43 = ORIENTED_EDGE ( 'NONE', *, *, #133, .F. ) ;
#44 = ADVANCED_FACE ( 'NONE', ( #59, #61 ), #101, .T. ) ;
#45 = CARTESIAN_POINT ( 'NONE',  ( 0.0000000000000000000, 0.0000000000000000000, 0.0000000000000000000 ) ) ;
#46 = DIRECTION ( 'NONE',  ( 0.0000000000000000000, 0.0000000000000000000, -1.000000000000000000 ) ) ;
#47 = CARTESIAN_POINT ( 'NONE',  ( 0.0000000000000000000, 0.0000000000000000000, -267.0000000000000000 ) ) ;
#48 = DIRECTION ( 'NONE',  ( 0.0000000000000000000, 0.0000000000000000000, 1.000000000000000000 ) ) ;
#49 = DIRECTION ( 'NONE',  ( 1.000000000000000000, 0.0000000000000000000, -0.0000000000000000000 ) ) ;
#50 = SURFACE_SIDE_STYLE ('',( #76 ) ) ;
#51 = DIRECTION ( 'NONE',  ( 0.0000000000000000000, 0.0000000000000000000, 1.000000000000000000 ) ) ;
#52 = CARTESIAN_POINT ( 'NONE',  ( 0.0000000000000000000, 0.0000000000000000000, -266.4999999999999400 ) ) ;
#53 = FACE_OUTER_BOUND ( 'NONE', #103, .T. ) ;
#54 = ORIENTED_EDGE ( 'NONE', *, *, #125, .F. ) ;
#55 = EDGE_LOOP ( 'NONE', ( #54 ) ) ;
#56 = ORIENTED_EDGE ( 'NONE', *, *, #128, .T. ) ;
#57 = ORIENTED_EDGE ( 'NONE', *, *, #133, .T. ) ;
#58 = DIRECTION ( 'NONE',  ( -0.0000000000000000000, -0.0000000000000000000, -1.000000000000000000 ) ) ;
#59 = FACE_OUTER_BOUND ( 'NONE', #115, .T. ) ;
#60 = EDGE_LOOP ( 'NONE', ( #85 ) ) ;
#61 = FACE_BOUND ( 'NONE', #55, .T. ) ;
#62 = VERTEX_POINT ( 'NONE', #96 ) ;
#63 = CIRCLE ( 'NONE', #95, 2.499999999999974200 ) ;
#64 = SHAPE_DEFINITION_REPRESENTATION ( #25, #126 ) ;
#65 =( NAMED_UNIT ( * ) SI_UNIT ( $, .STERADIAN. ) SOLID_ANGLE_UNIT ( ) );
#66 = CIRCLE ( 'NONE', #107, 3.000000000000000400 ) ;
#67 = PLANE ( 'NONE',  #116 ) ;
#68 = VERTEX_POINT ( 'NONE', #78 ) ;
#69 = CIRCLE ( 'NONE', #106, 3.000000000000000400 ) ;
#70 = PRESENTATION_STYLE_ASSIGNMENT (( #21 ) ) ;
#71 = FACE_BOUND ( 'NONE', #108, .T. ) ;
#72 = CYLINDRICAL_SURFACE ( 'NONE', #88, 3.000000000000000400 ) ;
#73 = FACE_OUTER_BOUND ( 'NONE', #91, .T. ) ;
#74 = COLOUR_RGB ( '',0.7529411764705882200, 0.7529411764705882200, 0.7529411764705882200 ) ;
#75 = FACE_OUTER_BOUND ( 'NONE', #1, .T. ) ;
#76 = SURFACE_STYLE_FILL_AREA ( #42 ) ;
#77 = FILL_AREA_STYLE ('',( #97 ) ) ;
#78 = CARTESIAN_POINT ( 'NONE',  ( 2.500000000000030200, 0.0000000000000000000, 0.0000000000000000000 ) ) ;
#79 = FACE_OUTER_BOUND ( 'NONE', #92, .T. ) ;
#80 = CARTESIAN_POINT ( 'NONE',  ( 3.000000000000000400, 0.0000000000000000000, -0.5000000000000004400 ) ) ;
#81 = DIRECTION ( 'NONE',  ( 0.0000000000000000000, 0.0000000000000000000, 1.000000000000000000 ) ) ;
#82 = DIRECTION ( 'NONE',  ( 1.000000000000000000, 0.0000000000000000000, 0.0000000000000000000 ) ) ;
#83 = APPLICATION_PROTOCOL_DEFINITION ( 'draft international standard', 'automotive_design', 1998, #8 ) ;
#84 = CARTESIAN_POINT ( 'NONE',  ( 0.0000000000000000000, 0.0000000000000000000, -267.0000000000000000 ) ) ;
#85 = ORIENTED_EDGE ( 'NONE', *, *, #128, .F. ) ;
#86 = PRODUCT_DEFINITION_CONTEXT ( 'detailed design', #36, 'design' ) ;
#87 = ADVANCED_FACE ( 'NONE', ( #79, #73 ), #72, .T. ) ;
#88 = AXIS2_PLACEMENT_3D ( 'NONE', #13, #48, #41 ) ;
#89 =( NAMED_UNIT ( * ) SI_UNIT ( $, .STERADIAN. ) SOLID_ANGLE_UNIT ( ) );
#90 = ADVANCED_FACE ( 'NONE', ( #75 ), #67, .F. ) ;
#91 = EDGE_LOOP ( 'NONE', ( #109 ) ) ;
#92 = EDGE_LOOP ( 'NONE', ( #56 ) ) ;
#93 = CARTESIAN_POINT ( 'NONE',  ( 0.0000000000000000000, 0.0000000000000000000, 0.0000000000000000000 ) ) ;
#94 = DIRECTION ( 'NONE',  ( 1.000000000000000000, 0.0000000000000000000, 0.0000000000000000000 ) ) ;
#95 = AXIS2_PLACEMENT_3D ( 'NONE', #84, #58, #94 ) ;
#96 = CARTESIAN_POINT ( 'NONE',  ( 3.000000000000000400, 0.0000000000000000000, -266.4999999999999400 ) ) ;
#97 = FILL_AREA_STYLE_COLOUR ( '', #11 ) ;
#98 =( NAMED_UNIT ( * ) PLANE_ANGLE_UNIT ( ) SI_UNIT ( $, .RADIAN. ) );
#99 = CARTESIAN_POINT ( 'NONE',  ( 0.0000000000000000000, 0.0000000000000000000, -266.4999999999999400 ) ) ;
#100 = CONICAL_SURFACE ( 'NONE', #110, 3.000000000000000400, 0.7853981633974184100 ) ;
#101 = CONICAL_SURFACE ( 'NONE', #124, 2.500000000000030200, 0.7853981633974184100 ) ;
#102 = FACE_OUTER_BOUND ( 'NONE', #60, .T. ) ;
#103 = EDGE_LOOP ( 'NONE', ( #20 ) ) ;
#104 = CIRCLE ( 'NONE', #112, 2.500000000000030200 ) ;
#105 = DIRECTION ( 'NONE',  ( -0.0000000000000000000, -0.0000000000000000000, 1.000000000000000000 ) ) ;
#106 = AXIS2_PLACEMENT_3D ( 'NONE', #99, #105, #117 ) ;
#107 = AXIS2_PLACEMENT_3D ( 'NONE', #39, #46, #32 ) ;
#108 = EDGE_LOOP ( 'NONE', ( #43 ) ) ;
#109 = ORIENTED_EDGE ( 'NONE', *, *, #130, .T. ) ;
#110 = AXIS2_PLACEMENT_3D ( 'NONE', #52, #26, #6 ) ;
#111 =( GEOMETRIC_REPRESENTATION_CONTEXT ( 3 ) GLOBAL_UNCERTAINTY_ASSIGNED_CONTEXT ( ( #12 ) ) GLOBAL_UNIT_ASSIGNED_CONTEXT ( ( #23, #24, #65 ) ) REPRESENTATION_CONTEXT ( 'NONE', 'WORKASPACE' ) );
#112 = AXIS2_PLACEMENT_3D ( 'NONE', #45, #81, #82 ) ;
#113 = MANIFOLD_SOLID_BREP ( 'Chamfer1', #7 ) ;
#114 = PRESENTATION_LAYER_ASSIGNMENT (  '', '', ( #119 ) ) ;
#115 = EDGE_LOOP ( 'NONE', ( #120 ) ) ;
#116 = AXIS2_PLACEMENT_3D ( 'NONE', #47, #51, #49 ) ;
#117 = DIRECTION ( 'NONE',  ( 1.000000000000000000, 0.0000000000000000000, 0.0000000000000000000 ) ) ;
#118 = MECHANICAL_DESIGN_GEOMETRIC_PRESENTATION_REPRESENTATION (  '', ( #119 ), #111 ) ;
#119 = STYLED_ITEM ( 'NONE', ( #70 ), #113 ) ;
#120 = ORIENTED_EDGE ( 'NONE', *, *, #130, .F. ) ;
#121 = ADVANCED_FACE ( 'NONE', ( #71, #102 ), #100, .T. ) ;
#122 = AXIS2_PLACEMENT_3D ( 'NONE', #17, #18, #16 ) ;
#123 =( LENGTH_UNIT ( ) NAMED_UNIT ( * ) SI_UNIT ( .MILLI., .METRE. ) );
#124 = AXIS2_PLACEMENT_3D ( 'NONE', #19, #22, #14 ) ;
#125 = EDGE_CURVE ( 'NONE', #68, #68, #104, .T. ) ;
#126 = ADVANCED_BREP_SHAPE_REPRESENTATION ( '1046-A2P-A', ( #113, #134 ), #140 ) ;
#127 = PRODUCT_RELATED_PRODUCT_CATEGORY ( 'part', '', ( #29 ) ) ;
#128 = EDGE_CURVE ( 'NONE', #62, #62, #69, .T. ) ;
#129 = PRODUCT_DEFINITION_FORMATION_WITH_SPECIFIED_SOURCE ( 'ANY', '', #29, .NOT_KNOWN. ) ;
#130 = EDGE_CURVE ( 'NONE', #5, #5, #66, .T. ) ;
#131 = PRODUCT_DEFINITION ( 'UNKNOWN', '', #129, #86 ) ;
#132 = UNCERTAINTY_MEASURE_WITH_UNIT (LENGTH_MEASURE( 1.000000000000000100E-005 ), #27, 'distance_accuracy_value', 'NONE');
#133 = EDGE_CURVE ( 'NONE', #9, #9, #63, .T. ) ;
#134 = AXIS2_PLACEMENT_3D ( 'NONE', #93, #33, #34 ) ;
#135 =( GEOMETRIC_REPRESENTATION_CONTEXT ( 3 ) GLOBAL_UNCERTAINTY_ASSIGNED_CONTEXT ( ( #132 ) ) GLOBAL_UNIT_ASSIGNED_CONTEXT ( ( #27, #30, #28 ) ) REPRESENTATION_CONTEXT ( 'NONE', 'WORKASPACE' ) );
#136 = SURFACE_SIDE_STYLE ('',( #4 ) ) ;
#137 = MECHANICAL_DESIGN_GEOMETRIC_PRESENTATION_REPRESENTATION (  '', ( #139 ), #135 ) ;
#138 = PRESENTATION_LAYER_ASSIGNMENT (  '', '', ( #139 ) ) ;
#139 = STYLED_ITEM ( 'NONE', ( #40 ), #126 ) ;
#140 =( GEOMETRIC_REPRESENTATION_CONTEXT ( 3 ) GLOBAL_UNCERTAINTY_ASSIGNED_CONTEXT ( ( #3 ) ) GLOBAL_UNIT_ASSIGNED_CONTEXT ( ( #123, #98, #89 ) ) REPRESENTATION_CONTEXT ( 'NONE', 'WORKASPACE' ) );
ENDSEC;
END-ISO-10303-21;
