ISO-10303-21;
HEADER;
FILE_DESCRIPTION (( 'STEP AP203' ),
    '1' );
FILE_NAME ('1540.STEP',
    '2014-07-30T13:28:59',
    ( '' ),
    ( '' ),
    'SwSTEP 2.0',
    'SolidWorks 2014',
    '' );
FILE_SCHEMA (( 'CONFIG_CONTROL_DESIGN' ));
ENDSEC;

DATA;
#1 = ORIENTED_EDGE ( 'NONE', *, *, #68, .F. ) ;
#2 = DIRECTION ( 'NONE',  ( -0.0000000000000000000, -1.000000000000000000, -0.0000000000000000000 ) ) ;
#3 = CARTESIAN_POINT ( 'NONE',  ( 3.175426480542941700, 2.500000000000000000, -1.241076154620640100E-015 ) ) ;
#4 = CARTESIAN_POINT ( 'NONE',  ( 1.587713240271470400, 0.0000000000000000000, 2.749999999999998700 ) ) ;
#5 = APPROVAL_ROLE ( '' ) ;
#6 = EDGE_LOOP ( 'NONE', ( #339, #177 ) ) ;
#7 = DIRECTION ( 'NONE',  ( 0.0000000000000000000, 0.0000000000000000000, 1.000000000000000000 ) ) ;
#8 = CARTESIAN_POINT ( 'NONE',  ( 0.0000000000000000000, 2.500000000000000000, 0.0000000000000000000 ) ) ;
#9 = AXIS2_PLACEMENT_3D ( 'NONE', #43, #244, #72 ) ;
#10 = PLANE ( 'NONE',  #331 ) ;
#11 = DIRECTION ( 'NONE',  ( -1.000000000000000000, 0.0000000000000000000, 1.365740544306507900E-016 ) ) ;
#12 = CC_DESIGN_PERSON_AND_ORGANIZATION_ASSIGNMENT ( #206, #97, ( #377 ) ) ;
#13 = DIRECTION ( 'NONE',  ( -0.4999999999999997800, 0.0000000000000000000, -0.8660254037844387100 ) ) ;
#14 = VECTOR ( 'NONE', #76, 1000.000000000000000 ) ;
#15 = PERSON_AND_ORGANIZATION ( #243, #272 ) ;
#16 = CARTESIAN_POINT ( 'NONE',  ( -1.587713240271471800, 0.0000000000000000000, -2.750000000000000900 ) ) ;
#17 = ADVANCED_FACE ( 'NONE', ( #257 ), #158, .F. ) ;
#18 = EDGE_LOOP ( 'NONE', ( #99, #201, #27, #142 ) ) ;
#19 = ORIENTED_EDGE ( 'NONE', *, *, #224, .T. ) ;
#20 = EDGE_CURVE ( 'NONE', #229, #301, #287, .T. ) ;
#21 = ORIENTED_EDGE ( 'NONE', *, *, #32, .T. ) ;
#22 = DIRECTION ( 'NONE',  ( -0.0000000000000000000, -1.000000000000000000, -0.0000000000000000000 ) ) ;
#23 = FACE_OUTER_BOUND ( 'NONE', #94, .T. ) ;
#24 = LOCAL_TIME ( 15, 28, 59.00000000000000000, #106 ) ;
#25 = VECTOR ( 'NONE', #343, 1000.000000000000000 ) ;
#26 = DIRECTION ( 'NONE',  ( 0.5000000000000001100, 0.0000000000000000000, -0.8660254037844386000 ) ) ;
#27 = ORIENTED_EDGE ( 'NONE', *, *, #171, .F. ) ;
#28 = VERTEX_POINT ( 'NONE', #127 ) ;
#29 = ORIENTED_EDGE ( 'NONE', *, *, #298, .T. ) ;
#30 = CYLINDRICAL_SURFACE ( 'NONE', #210, 1.249999999999999800 ) ;
#31 = APPROVAL_PERSON_ORGANIZATION ( #116, #335, #5 ) ;
#32 = EDGE_CURVE ( 'NONE', #150, #154, #358, .T. ) ;
#33 = AXIS2_PLACEMENT_3D ( 'NONE', #139, #328, #159 ) ;
#34 = CC_DESIGN_DATE_AND_TIME_ASSIGNMENT ( #275, #279, ( #377 ) ) ;
#35 = COORDINATED_UNIVERSAL_TIME_OFFSET ( 1, 0, .AHEAD. ) ;
#36 = CC_DESIGN_APPROVAL ( #217, ( #360 ) ) ;
#37 = VECTOR ( 'NONE', #314, 1000.000000000000000 ) ;
#38 = CALENDAR_DATE ( 2014, 30, 7 ) ;
#39 = ORIENTED_EDGE ( 'NONE', *, *, #171, .T. ) ;
#40 = FACE_OUTER_BOUND ( 'NONE', #18, .T. ) ;
#41 = PLANE ( 'NONE',  #152 ) ;
#42 = PERSON_AND_ORGANIZATION_ROLE ( 'creator' ) ;
#43 = CARTESIAN_POINT ( 'NONE',  ( 0.0000000000000000000, 0.0000000000000000000, 0.0000000000000000000 ) ) ;
#44 = CARTESIAN_POINT ( 'NONE',  ( 3.175426480542941700, 2.500000000000000000, -1.241076154620640100E-015 ) ) ;
#45 = PLANE ( 'NONE',  #73 ) ;
#46 = LOCAL_TIME ( 15, 28, 59.00000000000000000, #128 ) ;
#47 = FACE_OUTER_BOUND ( 'NONE', #232, .T. ) ;
#48 = EDGE_CURVE ( 'NONE', #80, #229, #207, .T. ) ;
#49 = LINE ( 'NONE', #166, #37 ) ;
#50 = AXIS2_PLACEMENT_3D ( 'NONE', #234, #164, #211 ) ;
#51 = DATE_AND_TIME ( #133, #259 ) ;
#52 = VERTEX_POINT ( 'NONE', #156 ) ;
#53 = FACE_OUTER_BOUND ( 'NONE', #108, .T. ) ;
#54 = DIRECTION ( 'NONE',  ( -1.000000000000000000, 0.0000000000000000000, 0.0000000000000000000 ) ) ;
#55 = PLANE ( 'NONE',  #118 ) ;
#56 = LINE ( 'NONE', #289, #126 ) ;
#57 = CARTESIAN_POINT ( 'NONE',  ( 1.587713240271470400, 2.500000000000000000, 2.749999999999998700 ) ) ;
#58 = EDGE_CURVE ( 'NONE', #223, #62, #209, .T. ) ;
#59 = APPROVAL ( #353, 'UNSPECIFIED' ) ;
#60 = VECTOR ( 'NONE', #65, 1000.000000000000100 ) ;
#61 = CC_DESIGN_PERSON_AND_ORGANIZATION_ASSIGNMENT ( #92, #219, ( #360 ) ) ;
#62 = VERTEX_POINT ( 'NONE', #3 ) ;
#63 = CARTESIAN_POINT ( 'NONE',  ( 1.587713240271472200, 2.500000000000000000, -2.750000000000000900 ) ) ;
#64 = FACE_BOUND ( 'NONE', #212, .T. ) ;
#65 = DIRECTION ( 'NONE',  ( -0.4999999999999997800, 0.0000000000000000000, -0.8660254037844387100 ) ) ;
#66 = ADVANCED_BREP_SHAPE_REPRESENTATION ( '1540', ( #205, #50 ), #267 ) ;
#67 = ORIENTED_EDGE ( 'NONE', *, *, #83, .F. ) ;
#68 = EDGE_CURVE ( 'NONE', #62, #229, #282, .T. ) ;
#69 = EDGE_LOOP ( 'NONE', ( #21, #160, #258, #376 ) ) ;
#70 = CARTESIAN_POINT ( 'NONE',  ( -1.587713240271472900, 2.500000000000000000, 2.749999999999999100 ) ) ;
#71 = AXIS2_PLACEMENT_3D ( 'NONE', #85, #305, #321 ) ;
#72 = DIRECTION ( 'NONE',  ( 0.0000000000000000000, 0.0000000000000000000, 1.000000000000000000 ) ) ;
#73 = AXIS2_PLACEMENT_3D ( 'NONE', #74, #286, #248 ) ;
#74 = CARTESIAN_POINT ( 'NONE',  ( 1.587713240271470400, 2.500000000000000000, 2.749999999999998700 ) ) ;
#75 = CC_DESIGN_APPROVAL ( #59, ( #377 ) ) ;
#76 = DIRECTION ( 'NONE',  ( -0.0000000000000000000, -1.000000000000000000, -0.0000000000000000000 ) ) ;
#77 = DIRECTION ( 'NONE',  ( -0.5000000000000001100, 0.0000000000000000000, 0.8660254037844386000 ) ) ;
#78 = DIRECTION ( 'NONE',  ( 1.000000000000000000, 0.0000000000000000000, -1.365740544306507900E-016 ) ) ;
#79 = VERTEX_POINT ( 'NONE', #180 ) ;
#80 = VERTEX_POINT ( 'NONE', #4 ) ;
#81 = APPLICATION_PROTOCOL_DEFINITION ( 'international standard', 'config_control_design', 1994, #299 ) ;
#82 = ORIENTED_EDGE ( 'NONE', *, *, #104, .F. ) ;
#83 = EDGE_CURVE ( 'NONE', #223, #80, #277, .T. ) ;
#84 = AXIS2_PLACEMENT_3D ( 'NONE', #364, #194, #11 ) ;
#85 = CARTESIAN_POINT ( 'NONE',  ( 0.0000000000000000000, 2.500000000000000000, 0.0000000000000000000 ) ) ;
#86 = CC_DESIGN_SECURITY_CLASSIFICATION ( #377, ( #360 ) ) ;
#87 = APPROVAL_STATUS ( 'not_yet_approved' ) ;
#88 = VERTEX_POINT ( 'NONE', #162 ) ;
#89 = EDGE_LOOP ( 'NONE', ( #102, #327, #235, #307 ) ) ;
#90 = LINE ( 'NONE', #100, #14 ) ;
#91 = DIRECTION ( 'NONE',  ( 0.0000000000000000000, -0.0000000000000000000, 1.000000000000000000 ) ) ;
#92 = PERSON_AND_ORGANIZATION ( #243, #272 ) ;
#93 = LINE ( 'NONE', #63, #114 ) ;
#94 = EDGE_LOOP ( 'NONE', ( #361, #67, #181, #29 ) ) ;
#95 = ORIENTED_EDGE ( 'NONE', *, *, #151, .T. ) ;
#96 = CARTESIAN_POINT ( 'NONE',  ( -3.175426480542942600, 2.500000000000000000, -1.718315653377862200E-015 ) ) ;
#97 = PERSON_AND_ORGANIZATION_ROLE ( 'classification_officer' ) ;
#98 = DIRECTION ( 'NONE',  ( 0.0000000000000000000, 0.0000000000000000000, -1.000000000000000000 ) ) ;
#99 = ORIENTED_EDGE ( 'NONE', *, *, #20, .T. ) ;
#100 = CARTESIAN_POINT ( 'NONE',  ( 1.530808498934191300E-016, 2.500000000000000000, 1.249999999999999800 ) ) ;
#101 = APPROVAL_DATE_TIME ( #179, #59 ) ;
#102 = ORIENTED_EDGE ( 'NONE', *, *, #130, .T. ) ;
#103 = DIRECTION ( 'NONE',  ( -0.0000000000000000000, -1.000000000000000000, -0.0000000000000000000 ) ) ;
#104 = EDGE_CURVE ( 'NONE', #365, #80, #355, .T. ) ;
#105 = VECTOR ( 'NONE', #144, 1000.000000000000000 ) ;
#106 = COORDINATED_UNIVERSAL_TIME_OFFSET ( 1, 0, .AHEAD. ) ;
#107 = FACE_BOUND ( 'NONE', #6, .T. ) ;
#108 = EDGE_LOOP ( 'NONE', ( #370, #187, #169, #316, #39, #256 ) ) ;
#109 = CARTESIAN_POINT ( 'NONE',  ( 1.587713240271472200, 0.0000000000000000000, -2.750000000000000900 ) ) ;
#110 = CLOSED_SHELL ( 'NONE', ( #347, #255, #147, #371, #111, #228, #230, #115, #17, #368 ) ) ;
#111 = ADVANCED_FACE ( 'NONE', ( #47 ), #10, .F. ) ;
#112 = ORIENTED_EDGE ( 'NONE', *, *, #48, .F. ) ;
#113 = CARTESIAN_POINT ( 'NONE',  ( 3.175426480542941700, 0.0000000000000000000, -1.241076154620640100E-015 ) ) ;
#114 = VECTOR ( 'NONE', #22, 1000.000000000000000 ) ;
#115 = ADVANCED_FACE ( 'NONE', ( #40 ), #332, .F. ) ;
#116 = PERSON_AND_ORGANIZATION ( #243, #272 ) ;
#117 = EDGE_CURVE ( 'NONE', #28, #223, #185, .T. ) ;
#118 = AXIS2_PLACEMENT_3D ( 'NONE', #341, #167, #367 ) ;
#119 = APPROVAL_PERSON_ORGANIZATION ( #196, #59, #261 ) ;
#120 = PRODUCT_RELATED_PRODUCT_CATEGORY ( 'detail', '', ( #288 ) ) ;
#121 = CIRCLE ( 'NONE', #375, 1.249999999999999800 ) ;
#122 = CC_DESIGN_PERSON_AND_ORGANIZATION_ASSIGNMENT ( #15, #188, ( #360 ) ) ;
#123 = LOCAL_TIME ( 15, 28, 59.00000000000000000, #199 ) ;
#124 = ORIENTED_EDGE ( 'NONE', *, *, #312, .F. ) ;
#125 = VECTOR ( 'NONE', #141, 1000.000000000000000 ) ;
#126 = VECTOR ( 'NONE', #103, 1000.000000000000000 ) ;
#127 = CARTESIAN_POINT ( 'NONE',  ( -1.587713240271472900, 2.500000000000000000, 2.749999999999999100 ) ) ;
#128 = COORDINATED_UNIVERSAL_TIME_OFFSET ( 1, 0, .AHEAD. ) ;
#129 = VECTOR ( 'NONE', #193, 1000.000000000000000 ) ;
#130 = EDGE_CURVE ( 'NONE', #301, #326, #268, .T. ) ;
#131 = VECTOR ( 'NONE', #77, 1000.000000000000000 ) ;
#132 = DATE_TIME_ROLE ( 'creation_date' ) ;
#133 = CALENDAR_DATE ( 2014, 30, 7 ) ;
#134 = ORIENTED_EDGE ( 'NONE', *, *, #214, .F. ) ;
#135 = VECTOR ( 'NONE', #216, 1000.000000000000200 ) ;
#136 = CARTESIAN_POINT ( 'NONE',  ( 1.587713240271472200, 2.500000000000000000, -2.750000000000000900 ) ) ;
#137 = ORIENTED_EDGE ( 'NONE', *, *, #151, .F. ) ;
#138 = VECTOR ( 'NONE', #283, 1000.000000000000000 ) ;
#139 = CARTESIAN_POINT ( 'NONE',  ( 0.0000000000000000000, 0.0000000000000000000, 0.0000000000000000000 ) ) ;
#140 = UNCERTAINTY_MEASURE_WITH_UNIT (LENGTH_MEASURE( 1.000000000000000100E-005 ), #266, 'distance_accuracy_value', 'NONE');
#141 = DIRECTION ( 'NONE',  ( 1.000000000000000000, 0.0000000000000000000, -1.365740544306507900E-016 ) ) ;
#142 = ORIENTED_EDGE ( 'NONE', *, *, #68, .T. ) ;
#143 = DIRECTION ( 'NONE',  ( 0.4999999999999996100, 0.0000000000000000000, 0.8660254037844388200 ) ) ;
#144 = DIRECTION ( 'NONE',  ( 0.4999999999999996100, 0.0000000000000000000, 0.8660254037844388200 ) ) ;
#145 = CC_DESIGN_APPROVAL ( #335, ( #200 ) ) ;
#146 = EDGE_LOOP ( 'NONE', ( #270, #241, #19, #124 ) ) ;
#147 = ADVANCED_FACE ( 'NONE', ( #324, #107 ), #55, .F. ) ;
#148 = CIRCLE ( 'NONE', #33, 1.249999999999999800 ) ;
#149 = CARTESIAN_POINT ( 'NONE',  ( 0.0000000000000000000, 2.500000000000000000, 0.0000000000000000000 ) ) ;
#150 = VERTEX_POINT ( 'NONE', #227 ) ;
#151 = EDGE_CURVE ( 'NONE', #326, #281, #176, .T. ) ;
#152 = AXIS2_PLACEMENT_3D ( 'NONE', #308, #189, #7 ) ;
#153 = APPLICATION_CONTEXT ( 'configuration controlled 3d designs of mechanical parts and assemblies' ) ;
#154 = VERTEX_POINT ( 'NONE', #251 ) ;
#155 = EDGE_CURVE ( 'NONE', #88, #52, #278, .T. ) ;
#156 = CARTESIAN_POINT ( 'NONE',  ( -1.587713240271471800, 2.500000000000000000, -2.750000000000000900 ) ) ;
#157 = CC_DESIGN_PERSON_AND_ORGANIZATION_ASSIGNMENT ( #280, #42, ( #200 ) ) ;
#158 = PLANE ( 'NONE',  #274 ) ;
#159 = DIRECTION ( 'NONE',  ( 0.0000000000000000000, 0.0000000000000000000, 1.000000000000000000 ) ) ;
#160 = ORIENTED_EDGE ( 'NONE', *, *, #231, .T. ) ;
#161 = CARTESIAN_POINT ( 'NONE',  ( -1.587713240271471800, 2.500000000000000000, -2.750000000000000900 ) ) ;
#162 = CARTESIAN_POINT ( 'NONE',  ( 1.587713240271472200, 2.500000000000000000, -2.750000000000000900 ) ) ;
#163 = DESIGN_CONTEXT ( 'detailed design', #153, 'design' ) ;
#164 = DIRECTION ( 'NONE',  ( 0.0000000000000000000, 0.0000000000000000000, 1.000000000000000000 ) ) ;
#165 = EDGE_CURVE ( 'NONE', #249, #281, #49, .T. ) ;
#166 = CARTESIAN_POINT ( 'NONE',  ( -3.175426480542942600, 2.500000000000000000, -1.718315653377862200E-015 ) ) ;
#167 = DIRECTION ( 'NONE',  ( 0.0000000000000000000, 1.000000000000000000, -0.0000000000000000000 ) ) ;
#168 = DIRECTION ( 'NONE',  ( -0.8660254037844388200, 0.0000000000000000000, 0.4999999999999998300 ) ) ;
#169 = ORIENTED_EDGE ( 'NONE', *, *, #117, .T. ) ;
#170 = DIRECTION ( 'NONE',  ( 0.0000000000000000000, 0.0000000000000000000, 1.000000000000000000 ) ) ;
#171 = EDGE_CURVE ( 'NONE', #62, #88, #351, .T. ) ;
#172 = ORIENTED_EDGE ( 'NONE', *, *, #165, .T. ) ;
#173 = VECTOR ( 'NONE', #204, 1000.000000000000000 ) ;
#174 = APPROVAL_DATE_TIME ( #252, #217 ) ;
#175 =( NAMED_UNIT ( * ) SI_UNIT ( $, .STERADIAN. ) SOLID_ANGLE_UNIT ( ) );
#176 = LINE ( 'NONE', #16, #131 ) ;
#177 = ORIENTED_EDGE ( 'NONE', *, *, #312, .T. ) ;
#178 = ORIENTED_EDGE ( 'NONE', *, *, #298, .F. ) ;
#179 = DATE_AND_TIME ( #262, #334 ) ;
#180 = CARTESIAN_POINT ( 'NONE',  ( 0.0000000000000000000, 0.0000000000000000000, -1.249999999999999800 ) ) ;
#181 = ORIENTED_EDGE ( 'NONE', *, *, #117, .F. ) ;
#182 = CARTESIAN_POINT ( 'NONE',  ( 3.175426480542941700, 2.500000000000000000, -1.241076154620640100E-015 ) ) ;
#183 = LINE ( 'NONE', #311, #322 ) ;
#184 = APPROVAL_PERSON_ORGANIZATION ( #265, #217, #306 ) ;
#185 = LINE ( 'NONE', #254, #340 ) ;
#186 = ORIENTED_EDGE ( 'NONE', *, *, #276, .F. ) ;
#187 = ORIENTED_EDGE ( 'NONE', *, *, #245, .T. ) ;
#188 = PERSON_AND_ORGANIZATION_ROLE ( 'design_supplier' ) ;
#189 = DIRECTION ( 'NONE',  ( 0.0000000000000000000, 1.000000000000000000, -0.0000000000000000000 ) ) ;
#190 = FACE_OUTER_BOUND ( 'NONE', #218, .T. ) ;
#191 = PERSON_AND_ORGANIZATION ( #243, #272 ) ;
#192 = DIRECTION ( 'NONE',  ( -0.0000000000000000000, -1.000000000000000000, -0.0000000000000000000 ) ) ;
#193 = DIRECTION ( 'NONE',  ( -0.0000000000000000000, -1.000000000000000000, -0.0000000000000000000 ) ) ;
#194 = DIRECTION ( 'NONE',  ( -1.365740544306507900E-016, 0.0000000000000000000, -1.000000000000000000 ) ) ;
#195 = AXIS2_PLACEMENT_3D ( 'NONE', #44, #168, #293 ) ;
#196 = PERSON_AND_ORGANIZATION ( #243, #272 ) ;
#197 = DIRECTION ( 'NONE',  ( -0.0000000000000000000, -1.000000000000000000, -0.0000000000000000000 ) ) ;
#198 = VECTOR ( 'NONE', #54, 1000.000000000000000 ) ;
#199 = COORDINATED_UNIVERSAL_TIME_OFFSET ( 1, 0, .AHEAD. ) ;
#200 = PRODUCT_DEFINITION ( 'UNKNOWN', '', #360, #163 ) ;
#201 = ORIENTED_EDGE ( 'NONE', *, *, #373, .F. ) ;
#202 = VECTOR ( 'NONE', #2, 1000.000000000000000 ) ;
#203 = DIRECTION ( 'NONE',  ( -0.4999999999999996700, 0.0000000000000000000, -0.8660254037844388200 ) ) ;
#204 = DIRECTION ( 'NONE',  ( -0.0000000000000000000, -1.000000000000000000, -0.0000000000000000000 ) ) ;
#205 = MANIFOLD_SOLID_BREP ( 'Boss-Extrude1', #110 ) ;
#206 = PERSON_AND_ORGANIZATION ( #243, #272 ) ;
#207 = LINE ( 'NONE', #239, #349 ) ;
#208 = EDGE_CURVE ( 'NONE', #281, #365, #336, .T. ) ;
#209 = LINE ( 'NONE', #318, #135 ) ;
#210 = AXIS2_PLACEMENT_3D ( 'NONE', #310, #197, #98 ) ;
#211 = DIRECTION ( 'NONE',  ( 1.000000000000000000, 0.0000000000000000000, 0.0000000000000000000 ) ) ;
#212 = EDGE_LOOP ( 'NONE', ( #269, #134 ) ) ;
#213 = FACE_OUTER_BOUND ( 'NONE', #69, .T. ) ;
#214 = EDGE_CURVE ( 'NONE', #154, #150, #121, .T. ) ;
#215 = ORIENTED_EDGE ( 'NONE', *, *, #350, .T. ) ;
#216 = DIRECTION ( 'NONE',  ( 0.5000000000000001100, 0.0000000000000000000, -0.8660254037844384900 ) ) ;
#217 = APPROVAL ( #87, 'UNSPECIFIED' ) ;
#218 = EDGE_LOOP ( 'NONE', ( #95, #354, #186, #215 ) ) ;
#219 = PERSON_AND_ORGANIZATION_ROLE ( 'creator' ) ;
#220 = CARTESIAN_POINT ( 'NONE',  ( -3.175426480542942600, 0.0000000000000000000, -1.718315653377862200E-015 ) ) ;
#221 = CARTESIAN_POINT ( 'NONE',  ( -1.587713240271471800, 0.0000000000000000000, -2.750000000000000900 ) ) ;
#222 = CARTESIAN_POINT ( 'NONE',  ( -3.175426480542942600, 2.500000000000000000, -1.718315653377862200E-015 ) ) ;
#223 = VERTEX_POINT ( 'NONE', #57 ) ;
#224 = EDGE_CURVE ( 'NONE', #150, #79, #250, .T. ) ;
#225 = CARTESIAN_POINT ( 'NONE',  ( 3.175426480542941700, 2.500000000000000000, -1.241076154620640100E-015 ) ) ;
#226 = AXIS2_PLACEMENT_3D ( 'NONE', #8, #192, #285 ) ;
#227 = CARTESIAN_POINT ( 'NONE',  ( 0.0000000000000000000, 2.500000000000000000, -1.249999999999999800 ) ) ;
#228 = ADVANCED_FACE ( 'NONE', ( #23 ), #372, .F. ) ;
#229 = VERTEX_POINT ( 'NONE', #113 ) ;
#230 = ADVANCED_FACE ( 'NONE', ( #253 ), #45, .F. ) ;
#231 = EDGE_CURVE ( 'NONE', #154, #292, #90, .T. ) ;
#232 = EDGE_LOOP ( 'NONE', ( #320, #178, #304, #172 ) ) ;
#233 = CC_DESIGN_DATE_AND_TIME_ASSIGNMENT ( #338, #132, ( #200 ) ) ;
#234 = CARTESIAN_POINT ( 'NONE',  ( 0.0000000000000000000, 0.0000000000000000000, 0.0000000000000000000 ) ) ;
#235 = ORIENTED_EDGE ( 'NONE', *, *, #155, .F. ) ;
#236 = DIRECTION ( 'NONE',  ( 1.000000000000000000, 0.0000000000000000000, -0.0000000000000000000 ) ) ;
#237 = SECURITY_CLASSIFICATION_LEVEL ( 'unclassified' ) ;
#238 = CC_DESIGN_PERSON_AND_ORGANIZATION_ASSIGNMENT ( #191, #302, ( #288 ) ) ;
#239 = CARTESIAN_POINT ( 'NONE',  ( 1.587713240271470400, 0.0000000000000000000, 2.749999999999998700 ) ) ;
#240 = ORIENTED_EDGE ( 'NONE', *, *, #208, .F. ) ;
#241 = ORIENTED_EDGE ( 'NONE', *, *, #214, .T. ) ;
#242 = CARTESIAN_POINT ( 'NONE',  ( -1.587713240271471800, 2.500000000000000000, -2.750000000000000900 ) ) ;
#243 = PERSON ( 'UNSPECIFIED', 'UNSPECIFIED', 'UNSPECIFIED', ('UNSPECIFIED'), ('UNSPECIFIED'), ('UNSPECIFIED') ) ;
#244 = DIRECTION ( 'NONE',  ( 0.0000000000000000000, 1.000000000000000000, 0.0000000000000000000 ) ) ;
#245 = EDGE_CURVE ( 'NONE', #249, #28, #183, .T. ) ;
#246 = CARTESIAN_POINT ( 'NONE',  ( 1.530808498934191300E-016, 0.0000000000000000000, 1.249999999999999800 ) ) ;
#247 = EDGE_CURVE ( 'NONE', #79, #292, #148, .T. ) ;
#248 = DIRECTION ( 'NONE',  ( -0.5000000000000002200, 0.0000000000000000000, 0.8660254037844384900 ) ) ;
#249 = VERTEX_POINT ( 'NONE', #96 ) ;
#250 = LINE ( 'NONE', #295, #173 ) ;
#251 = CARTESIAN_POINT ( 'NONE',  ( 1.530808498934191300E-016, 2.500000000000000000, 1.249999999999999800 ) ) ;
#252 = DATE_AND_TIME ( #323, #24 ) ;
#253 = FACE_OUTER_BOUND ( 'NONE', #263, .T. ) ;
#254 = CARTESIAN_POINT ( 'NONE',  ( -1.587713240271472900, 2.500000000000000000, 2.749999999999999100 ) ) ;
#255 = ADVANCED_FACE ( 'NONE', ( #53, #64 ), #41, .T. ) ;
#256 = ORIENTED_EDGE ( 'NONE', *, *, #155, .T. ) ;
#257 = FACE_OUTER_BOUND ( 'NONE', #89, .T. ) ;
#258 = ORIENTED_EDGE ( 'NONE', *, *, #247, .F. ) ;
#259 = LOCAL_TIME ( 15, 28, 59.00000000000000000, #330 ) ;
#260 = APPROVAL_STATUS ( 'not_yet_approved' ) ;
#261 = APPROVAL_ROLE ( '' ) ;
#262 = CALENDAR_DATE ( 2014, 30, 7 ) ;
#263 = EDGE_LOOP ( 'NONE', ( #315, #1, #342, #317 ) ) ;
#264 = VECTOR ( 'NONE', #13, 1000.000000000000100 ) ;
#265 = PERSON_AND_ORGANIZATION ( #243, #272 ) ;
#266 =( LENGTH_UNIT ( ) NAMED_UNIT ( * ) SI_UNIT ( .MILLI., .METRE. ) );
#267 =( GEOMETRIC_REPRESENTATION_CONTEXT ( 3 ) GLOBAL_UNCERTAINTY_ASSIGNED_CONTEXT ( ( #140 ) ) GLOBAL_UNIT_ASSIGNED_CONTEXT ( ( #266, #374, #175 ) ) REPRESENTATION_CONTEXT ( 'NONE', 'WORKASPACE' ) );
#268 = LINE ( 'NONE', #109, #25 ) ;
#269 = ORIENTED_EDGE ( 'NONE', *, *, #32, .F. ) ;
#270 = ORIENTED_EDGE ( 'NONE', *, *, #231, .F. ) ;
#271 = FACE_OUTER_BOUND ( 'NONE', #146, .T. ) ;
#272 = ORGANIZATION ( 'UNSPECIFIED', 'UNSPECIFIED', '' ) ;
#273 = DIRECTION ( 'NONE',  ( 0.5000000000000001100, 0.0000000000000000000, -0.8660254037844384900 ) ) ;
#274 = AXIS2_PLACEMENT_3D ( 'NONE', #136, #91, #236 ) ;
#275 = DATE_AND_TIME ( #348, #46 ) ;
#276 = EDGE_CURVE ( 'NONE', #52, #249, #362, .T. ) ;
#277 = LINE ( 'NONE', #359, #129 ) ;
#278 = LINE ( 'NONE', #290, #198 ) ;
#279 = DATE_TIME_ROLE ( 'classification_date' ) ;
#280 = PERSON_AND_ORGANIZATION ( #243, #272 ) ;
#281 = VERTEX_POINT ( 'NONE', #220 ) ;
#282 = LINE ( 'NONE', #182, #202 ) ;
#283 = DIRECTION ( 'NONE',  ( -0.5000000000000001100, 0.0000000000000000000, 0.8660254037844386000 ) ) ;
#284 = VECTOR ( 'NONE', #329, 1000.000000000000000 ) ;
#285 = DIRECTION ( 'NONE',  ( 0.0000000000000000000, 0.0000000000000000000, -1.000000000000000000 ) ) ;
#286 = DIRECTION ( 'NONE',  ( -0.8660254037844386000, 0.0000000000000000000, -0.5000000000000003300 ) ) ;
#287 = LINE ( 'NONE', #296, #60 ) ;
#288 = PRODUCT ( '1540', '1540', '', ( #300 ) ) ;
#289 = CARTESIAN_POINT ( 'NONE',  ( -1.587713240271471800, 2.500000000000000000, -2.750000000000000900 ) ) ;
#290 = CARTESIAN_POINT ( 'NONE',  ( 1.587713240271472200, 2.500000000000000000, -2.750000000000000900 ) ) ;
#291 = AXIS2_PLACEMENT_3D ( 'NONE', #161, #366, #26 ) ;
#292 = VERTEX_POINT ( 'NONE', #246 ) ;
#293 = DIRECTION ( 'NONE',  ( 0.4999999999999997800, 0.0000000000000000000, 0.8660254037844387100 ) ) ;
#294 = CIRCLE ( 'NONE', #9, 1.249999999999999800 ) ;
#295 = CARTESIAN_POINT ( 'NONE',  ( 0.0000000000000000000, 2.500000000000000000, -1.249999999999999800 ) ) ;
#296 = CARTESIAN_POINT ( 'NONE',  ( 3.175426480542941700, 0.0000000000000000000, -1.241076154620640100E-015 ) ) ;
#297 = ORIENTED_EDGE ( 'NONE', *, *, #130, .F. ) ;
#298 = EDGE_CURVE ( 'NONE', #28, #365, #357, .T. ) ;
#299 = APPLICATION_CONTEXT ( 'configuration controlled 3d designs of mechanical parts and assemblies' ) ;
#300 = MECHANICAL_CONTEXT ( 'NONE', #299, 'mechanical' ) ;
#301 = VERTEX_POINT ( 'NONE', #309 ) ;
#302 = PERSON_AND_ORGANIZATION_ROLE ( 'design_owner' ) ;
#303 = ORIENTED_EDGE ( 'NONE', *, *, #20, .F. ) ;
#304 = ORIENTED_EDGE ( 'NONE', *, *, #245, .F. ) ;
#305 = DIRECTION ( 'NONE',  ( 0.0000000000000000000, 1.000000000000000000, 0.0000000000000000000 ) ) ;
#306 = APPROVAL_ROLE ( '' ) ;
#307 = ORIENTED_EDGE ( 'NONE', *, *, #373, .T. ) ;
#308 = CARTESIAN_POINT ( 'NONE',  ( 0.0000000000000000000, 2.500000000000000000, 0.0000000000000000000 ) ) ;
#309 = CARTESIAN_POINT ( 'NONE',  ( 1.587713240271472200, 0.0000000000000000000, -2.750000000000000900 ) ) ;
#310 = CARTESIAN_POINT ( 'NONE',  ( 0.0000000000000000000, 2.500000000000000000, 0.0000000000000000000 ) ) ;
#311 = CARTESIAN_POINT ( 'NONE',  ( -3.175426480542942600, 2.500000000000000000, -1.718315653377862200E-015 ) ) ;
#312 = EDGE_CURVE ( 'NONE', #292, #79, #294, .T. ) ;
#313 = CARTESIAN_POINT ( 'NONE',  ( -1.587713240271472900, 0.0000000000000000000, 2.749999999999999100 ) ) ;
#314 = DIRECTION ( 'NONE',  ( -0.0000000000000000000, -1.000000000000000000, -0.0000000000000000000 ) ) ;
#315 = ORIENTED_EDGE ( 'NONE', *, *, #48, .T. ) ;
#316 = ORIENTED_EDGE ( 'NONE', *, *, #58, .T. ) ;
#317 = ORIENTED_EDGE ( 'NONE', *, *, #83, .T. ) ;
#318 = CARTESIAN_POINT ( 'NONE',  ( 1.587713240271470400, 2.500000000000000000, 2.749999999999998700 ) ) ;
#319 = PRODUCT_DEFINITION_SHAPE ( 'NONE', 'NONE',  #200 ) ;
#320 = ORIENTED_EDGE ( 'NONE', *, *, #208, .T. ) ;
#321 = DIRECTION ( 'NONE',  ( 0.0000000000000000000, 0.0000000000000000000, 1.000000000000000000 ) ) ;
#322 = VECTOR ( 'NONE', #143, 1000.000000000000000 ) ;
#323 = CALENDAR_DATE ( 2014, 30, 7 ) ;
#324 = FACE_OUTER_BOUND ( 'NONE', #325, .T. ) ;
#325 = EDGE_LOOP ( 'NONE', ( #137, #297, #303, #112, #82, #240 ) ) ;
#326 = VERTEX_POINT ( 'NONE', #221 ) ;
#327 = ORIENTED_EDGE ( 'NONE', *, *, #350, .F. ) ;
#328 = DIRECTION ( 'NONE',  ( 0.0000000000000000000, 1.000000000000000000, 0.0000000000000000000 ) ) ;
#329 = DIRECTION ( 'NONE',  ( -0.0000000000000000000, -1.000000000000000000, -0.0000000000000000000 ) ) ;
#330 = COORDINATED_UNIVERSAL_TIME_OFFSET ( 1, 0, .AHEAD. ) ;
#331 = AXIS2_PLACEMENT_3D ( 'NONE', #222, #369, #203 ) ;
#332 = PLANE ( 'NONE',  #195 ) ;
#333 = PLANE ( 'NONE',  #291 ) ;
#334 = LOCAL_TIME ( 15, 28, 59.00000000000000000, #35 ) ;
#335 = APPROVAL ( #260, 'UNSPECIFIED' ) ;
#336 = LINE ( 'NONE', #337, #105 ) ;
#337 = CARTESIAN_POINT ( 'NONE',  ( -3.175426480542942600, 0.0000000000000000000, -1.718315653377862200E-015 ) ) ;
#338 = DATE_AND_TIME ( #38, #123 ) ;
#339 = ORIENTED_EDGE ( 'NONE', *, *, #247, .T. ) ;
#340 = VECTOR ( 'NONE', #78, 1000.000000000000000 ) ;
#341 = CARTESIAN_POINT ( 'NONE',  ( 0.0000000000000000000, 0.0000000000000000000, 0.0000000000000000000 ) ) ;
#342 = ORIENTED_EDGE ( 'NONE', *, *, #58, .F. ) ;
#343 = DIRECTION ( 'NONE',  ( -1.000000000000000000, 0.0000000000000000000, 0.0000000000000000000 ) ) ;
#344 = CYLINDRICAL_SURFACE ( 'NONE', #226, 1.249999999999999800 ) ;
#345 = DIRECTION ( 'NONE',  ( 0.0000000000000000000, 1.000000000000000000, 0.0000000000000000000 ) ) ;
#346 = SHAPE_DEFINITION_REPRESENTATION ( #319, #66 ) ;
#347 = ADVANCED_FACE ( 'NONE', ( #213 ), #344, .F. ) ;
#348 = CALENDAR_DATE ( 2014, 30, 7 ) ;
#349 = VECTOR ( 'NONE', #273, 1000.000000000000200 ) ;
#350 = EDGE_CURVE ( 'NONE', #52, #326, #56, .T. ) ;
#351 = LINE ( 'NONE', #225, #264 ) ;
#352 = APPROVAL_DATE_TIME ( #51, #335 ) ;
#353 = APPROVAL_STATUS ( 'not_yet_approved' ) ;
#354 = ORIENTED_EDGE ( 'NONE', *, *, #165, .F. ) ;
#355 = LINE ( 'NONE', #363, #125 ) ;
#356 = APPLICATION_PROTOCOL_DEFINITION ( 'international standard', 'config_control_design', 1994, #153 ) ;
#357 = LINE ( 'NONE', #70, #284 ) ;
#358 = CIRCLE ( 'NONE', #71, 1.249999999999999800 ) ;
#359 = CARTESIAN_POINT ( 'NONE',  ( 1.587713240271470400, 2.500000000000000000, 2.749999999999998700 ) ) ;
#360 = PRODUCT_DEFINITION_FORMATION_WITH_SPECIFIED_SOURCE ( 'ANY', '', #288, .NOT_KNOWN. ) ;
#361 = ORIENTED_EDGE ( 'NONE', *, *, #104, .T. ) ;
#362 = LINE ( 'NONE', #242, #138 ) ;
#363 = CARTESIAN_POINT ( 'NONE',  ( -1.587713240271472900, 0.0000000000000000000, 2.749999999999999100 ) ) ;
#364 = CARTESIAN_POINT ( 'NONE',  ( -1.587713240271472900, 2.500000000000000000, 2.749999999999999100 ) ) ;
#365 = VERTEX_POINT ( 'NONE', #313 ) ;
#366 = DIRECTION ( 'NONE',  ( 0.8660254037844386000, -0.0000000000000000000, 0.5000000000000001100 ) ) ;
#367 = DIRECTION ( 'NONE',  ( 0.0000000000000000000, 0.0000000000000000000, 1.000000000000000000 ) ) ;
#368 = ADVANCED_FACE ( 'NONE', ( #271 ), #30, .F. ) ;
#369 = DIRECTION ( 'NONE',  ( 0.8660254037844388200, 0.0000000000000000000, -0.4999999999999996700 ) ) ;
#370 = ORIENTED_EDGE ( 'NONE', *, *, #276, .T. ) ;
#371 = ADVANCED_FACE ( 'NONE', ( #190 ), #333, .F. ) ;
#372 = PLANE ( 'NONE',  #84 ) ;
#373 = EDGE_CURVE ( 'NONE', #88, #301, #93, .T. ) ;
#374 =( NAMED_UNIT ( * ) PLANE_ANGLE_UNIT ( ) SI_UNIT ( $, .RADIAN. ) );
#375 = AXIS2_PLACEMENT_3D ( 'NONE', #149, #345, #170 ) ;
#376 = ORIENTED_EDGE ( 'NONE', *, *, #224, .F. ) ;
#377 = SECURITY_CLASSIFICATION ( '', '', #237 ) ;
ENDSEC;
END-ISO-10303-21;
