ISO-10303-21;
HEADER;
FILE_DESCRIPTION (( 'STEP AP214' ),
    '1' );
FILE_NAME ('1504 Sliding block Part G-B.STEP',
    '2015-03-20T13:07:56',
    ( '' ),
    ( '' ),
    'SwSTEP 2.0',
    'SolidWorks 2014',
    '' );
FILE_SCHEMA (( 'AUTOMOTIVE_DESIGN' ));
ENDSEC;

DATA;
#1 = DIRECTION ( 'NONE',  ( -0.0000000000000000000, -1.000000000000000000, -0.0000000000000000000 ) ) ;
#2 = ORIENTED_EDGE ( 'NONE', *, *, #381, .F. ) ;
#3 =( NAMED_UNIT ( * ) PLANE_ANGLE_UNIT ( ) SI_UNIT ( $, .RADIAN. ) );
#4 = ADVANCED_FACE ( 'NONE', ( #279, #85 ), #238, .T. ) ;
#5 = CARTESIAN_POINT ( 'NONE',  ( -8.249999999999998200, 0.0000000000000000000, 2.250000000000001300 ) ) ;
#6 = ORIENTED_EDGE ( 'NONE', *, *, #330, .F. ) ;
#7 = DIRECTION ( 'NONE',  ( 1.000000000000000000, 0.0000000000000000000, -1.051347561198064800E-016 ) ) ;
#8 = LINE ( 'NONE', #387, #271 ) ;
#9 = LINE ( 'NONE', #32, #337 ) ;
#10 = AXIS2_PLACEMENT_3D ( 'NONE', #405, #385, #234 ) ;
#11 = CARTESIAN_POINT ( 'NONE',  ( -6.249999999999998200, 4.000000000000000000, -4.249999999999999100 ) ) ;
#12 = ORIENTED_EDGE ( 'NONE', *, *, #381, .T. ) ;
#13 = VERTEX_POINT ( 'NONE', #11 ) ;
#14 = DIRECTION ( 'NONE',  ( 0.0000000000000000000, 0.0000000000000000000, -1.000000000000000000 ) ) ;
#15 = CARTESIAN_POINT ( 'NONE',  ( -6.249999999999998200, 0.0000000000000000000, -2.249999999999999600 ) ) ;
#16 = CARTESIAN_POINT ( 'NONE',  ( 8.250000000000001800, 4.000000000000000000, 4.249999999999999100 ) ) ;
#17 = VERTEX_POINT ( 'NONE', #361 ) ;
#18 = EDGE_CURVE ( 'NONE', #35, #196, #242, .T. ) ;
#19 = ORIENTED_EDGE ( 'NONE', *, *, #368, .F. ) ;
#20 = AXIS2_PLACEMENT_3D ( 'NONE', #130, #401, #404 ) ;
#21 = CARTESIAN_POINT ( 'NONE',  ( 6.250000000000001800, 4.000000000000000000, -4.250000000000000900 ) ) ;
#22 = VECTOR ( 'NONE', #24, 1000.000000000000000 ) ;
#23 = CARTESIAN_POINT ( 'NONE',  ( -6.249999999999998200, 4.000000000000000000, -4.249999999999999100 ) ) ;
#24 = DIRECTION ( 'NONE',  ( -0.0000000000000000000, -1.000000000000000000, -0.0000000000000000000 ) ) ;
#25 = CARTESIAN_POINT ( 'NONE',  ( 0.0000000000000000000, 0.0000000000000000000, 0.0000000000000000000 ) ) ;
#26 = ORIENTED_EDGE ( 'NONE', *, *, #239, .T. ) ;
#27 = EDGE_LOOP ( 'NONE', ( #253, #183, #128, #79 ) ) ;
#28 = ORIENTED_EDGE ( 'NONE', *, *, #285, .F. ) ;
#29 = VECTOR ( 'NONE', #258, 1000.000000000000000 ) ;
#30 = AXIS2_PLACEMENT_3D ( 'NONE', #15, #254, #210 ) ;
#31 = EDGE_LOOP ( 'NONE', ( #19, #255, #366, #6 ) ) ;
#32 = CARTESIAN_POINT ( 'NONE',  ( 6.250000000000001800, 4.000000000000000000, 4.249999999999999100 ) ) ;
#33 = ORIENTED_EDGE ( 'NONE', *, *, #18, .F. ) ;
#34 = CYLINDRICAL_SURFACE ( 'NONE', #57, 2.000000000000000000 ) ;
#35 = VERTEX_POINT ( 'NONE', #188 ) ;
#36 = ORIENTED_EDGE ( 'NONE', *, *, #314, .T. ) ;
#37 = DIRECTION ( 'NONE',  ( 0.0000000000000000000, 1.000000000000000000, -0.0000000000000000000 ) ) ;
#38 = FACE_OUTER_BOUND ( 'NONE', #77, .T. ) ;
#39 = EDGE_CURVE ( 'NONE', #82, #296, #76, .T. ) ;
#40 = AXIS2_PLACEMENT_3D ( 'NONE', #83, #90, #382 ) ;
#41 = DIRECTION ( 'NONE',  ( 0.0000000000000000000, 1.000000000000000000, 0.0000000000000000000 ) ) ;
#42 = CARTESIAN_POINT ( 'NONE',  ( 0.0000000000000000000, 0.0000000000000000000, 0.0000000000000000000 ) ) ;
#43 = ORIENTED_EDGE ( 'NONE', *, *, #335, .F. ) ;
#44 = FACE_OUTER_BOUND ( 'NONE', #338, .T. ) ;
#45 = ORIENTED_EDGE ( 'NONE', *, *, #319, .T. ) ;
#46 = CIRCLE ( 'NONE', #20, 2.000000000000000000 ) ;
#47 = CARTESIAN_POINT ( 'NONE',  ( 8.250000000000001800, 0.0000000000000000000, -2.250000000000001300 ) ) ;
#48 = DIRECTION ( 'NONE',  ( 0.0000000000000000000, 0.0000000000000000000, 1.000000000000000000 ) ) ;
#49 = DIRECTION ( 'NONE',  ( 0.0000000000000000000, 0.0000000000000000000, 1.000000000000000000 ) ) ;
#50 = DIRECTION ( 'NONE',  ( 0.0000000000000000000, 1.000000000000000000, 0.0000000000000000000 ) ) ;
#51 =( GEOMETRIC_REPRESENTATION_CONTEXT ( 3 ) GLOBAL_UNCERTAINTY_ASSIGNED_CONTEXT ( ( #309 ) ) GLOBAL_UNIT_ASSIGNED_CONTEXT ( ( #54, #176, #153 ) ) REPRESENTATION_CONTEXT ( 'NONE', 'WORKASPACE' ) );
#52 = DIRECTION ( 'NONE',  ( 0.0000000000000000000, -0.0000000000000000000, 1.000000000000000000 ) ) ;
#53 = VECTOR ( 'NONE', #120, 1000.000000000000000 ) ;
#54 =( LENGTH_UNIT ( ) NAMED_UNIT ( * ) SI_UNIT ( .MILLI., .METRE. ) );
#55 = FACE_OUTER_BOUND ( 'NONE', #376, .T. ) ;
#56 = EDGE_CURVE ( 'NONE', #196, #333, #9, .T. ) ;
#57 = AXIS2_PLACEMENT_3D ( 'NONE', #206, #393, #392 ) ;
#58 = CARTESIAN_POINT ( 'NONE',  ( 0.0000000000000000000, 4.000000000000000000, -1.550000000000000000 ) ) ;
#59 = FILL_AREA_STYLE_COLOUR ( '', #154 ) ;
#60 = DIRECTION ( 'NONE',  ( -0.0000000000000000000, -0.0000000000000000000, 1.000000000000000000 ) ) ;
#61 = CARTESIAN_POINT ( 'NONE',  ( -8.249999999999998200, 4.000000000000000000, 4.250000000000000900 ) ) ;
#62 = ORIENTED_EDGE ( 'NONE', *, *, #18, .T. ) ;
#63 = LINE ( 'NONE', #181, #129 ) ;
#64 = FILL_AREA_STYLE ('',( #315 ) ) ;
#65 = PLANE ( 'NONE',  #40 ) ;
#66 = VECTOR ( 'NONE', #14, 1000.000000000000000 ) ;
#67 = MANIFOLD_SOLID_BREP ( 'Fillet1', #100 ) ;
#68 = AXIS2_PLACEMENT_3D ( 'NONE', #272, #41, #97 ) ;
#69 = PLANE ( 'NONE',  #221 ) ;
#70 = DIRECTION ( 'NONE',  ( -0.0000000000000000000, -1.000000000000000000, -0.0000000000000000000 ) ) ;
#71 = DIRECTION ( 'NONE',  ( -1.000000000000000000, 0.0000000000000000000, 1.051347561198064800E-016 ) ) ;
#72 = LINE ( 'NONE', #106, #139 ) ;
#73 = CARTESIAN_POINT ( 'NONE',  ( -6.249999999999998200, 4.000000000000000000, 4.250000000000000900 ) ) ;
#74 = EDGE_CURVE ( 'NONE', #251, #333, #288, .T. ) ;
#75 = CARTESIAN_POINT ( 'NONE',  ( 0.0000000000000000000, 0.0000000000000000000, -1.550000000000000000 ) ) ;
#76 = LINE ( 'NONE', #99, #410 ) ;
#77 = EDGE_LOOP ( 'NONE', ( #2, #416, #45, #89 ) ) ;
#78 = DIRECTION ( 'NONE',  ( 0.0000000000000000000, 0.0000000000000000000, -1.000000000000000000 ) ) ;
#79 = ORIENTED_EDGE ( 'NONE', *, *, #151, .T. ) ;
#80 = CARTESIAN_POINT ( 'NONE',  ( 8.250000000000001800, 4.000000000000000000, -2.250000000000001300 ) ) ;
#81 = ORIENTED_EDGE ( 'NONE', *, *, #117, .F. ) ;
#82 = VERTEX_POINT ( 'NONE', #111 ) ;
#83 = CARTESIAN_POINT ( 'NONE',  ( 8.250000000000001800, 4.000000000000000000, 4.249999999999999100 ) ) ;
#84 = CIRCLE ( 'NONE', #360, 2.000000000000000000 ) ;
#85 = FACE_BOUND ( 'NONE', #98, .T. ) ;
#86 =( GEOMETRIC_REPRESENTATION_CONTEXT ( 3 ) GLOBAL_UNCERTAINTY_ASSIGNED_CONTEXT ( ( #268 ) ) GLOBAL_UNIT_ASSIGNED_CONTEXT ( ( #193, #375, #208 ) ) REPRESENTATION_CONTEXT ( 'NONE', 'WORKASPACE' ) );
#87 = DIRECTION ( 'NONE',  ( -0.0000000000000000000, 1.000000000000000000, -0.0000000000000000000 ) ) ;
#88 = ORIENTED_EDGE ( 'NONE', *, *, #220, .T. ) ;
#89 = ORIENTED_EDGE ( 'NONE', *, *, #249, .T. ) ;
#90 = DIRECTION ( 'NONE',  ( -1.000000000000000000, 0.0000000000000000000, 0.0000000000000000000 ) ) ;
#91 = ADVANCED_FACE ( 'NONE', ( #122 ), #173, .F. ) ;
#92 = CARTESIAN_POINT ( 'NONE',  ( 6.250000000000001800, 4.000000000000000000, -4.250000000000000900 ) ) ;
#93 = EDGE_CURVE ( 'NONE', #251, #115, #377, .T. ) ;
#94 = ORIENTED_EDGE ( 'NONE', *, *, #56, .T. ) ;
#95 = AXIS2_PLACEMENT_3D ( 'NONE', #61, #104, #137 ) ;
#96 = LINE ( 'NONE', #58, #22 ) ;
#97 = DIRECTION ( 'NONE',  ( 0.0000000000000000000, -0.0000000000000000000, 1.000000000000000000 ) ) ;
#98 = EDGE_LOOP ( 'NONE', ( #191, #165 ) ) ;
#99 = CARTESIAN_POINT ( 'NONE',  ( -8.249999999999998200, 4.000000000000000000, 4.250000000000000900 ) ) ;
#100 = CLOSED_SHELL ( 'NONE', ( #219, #4, #340, #91, #235, #119, #223, #148, #218, #103, #214, #212 ) ) ;
#101 = PLANE ( 'NONE',  #336 ) ;
#102 = ORIENTED_EDGE ( 'NONE', *, *, #74, .F. ) ;
#103 = ADVANCED_FACE ( 'NONE', ( #44 ), #34, .T. ) ;
#104 = DIRECTION ( 'NONE',  ( 1.000000000000000000, -0.0000000000000000000, 0.0000000000000000000 ) ) ;
#105 = PRESENTATION_STYLE_ASSIGNMENT (( #168 ) ) ;
#106 = CARTESIAN_POINT ( 'NONE',  ( 1.898202538678397500E-016, 4.000000000000000000, 1.550000000000000000 ) ) ;
#107 = LINE ( 'NONE', #23, #29 ) ;
#108 = DIRECTION ( 'NONE',  ( 0.0000000000000000000, 0.0000000000000000000, 1.000000000000000000 ) ) ;
#109 = MECHANICAL_DESIGN_GEOMETRIC_PRESENTATION_REPRESENTATION (  '', ( #192 ), #86 ) ;
#110 = DIRECTION ( 'NONE',  ( -1.000000000000000000, 0.0000000000000000000, 1.051347561198064800E-016 ) ) ;
#111 = CARTESIAN_POINT ( 'NONE',  ( -8.249999999999998200, 4.000000000000000000, -2.249999999999999600 ) ) ;
#112 = EDGE_LOOP ( 'NONE', ( #355, #81, #142, #300 ) ) ;
#113 = LINE ( 'NONE', #80, #365 ) ;
#114 = DIRECTION ( 'NONE',  ( 0.0000000000000000000, 0.0000000000000000000, 1.000000000000000000 ) ) ;
#115 = VERTEX_POINT ( 'NONE', #241 ) ;
#116 = LINE ( 'NONE', #222, #252 ) ;
#117 = EDGE_CURVE ( 'NONE', #123, #257, #113, .T. ) ;
#118 = AXIS2_PLACEMENT_3D ( 'NONE', #266, #215, #108 ) ;
#119 = ADVANCED_FACE ( 'NONE', ( #194 ), #65, .F. ) ;
#120 = DIRECTION ( 'NONE',  ( 0.0000000000000000000, -1.000000000000000000, 0.0000000000000000000 ) ) ;
#121 = ORIENTED_EDGE ( 'NONE', *, *, #409, .F. ) ;
#122 = FACE_OUTER_BOUND ( 'NONE', #320, .T. ) ;
#123 = VERTEX_POINT ( 'NONE', #47 ) ;
#124 = CYLINDRICAL_SURFACE ( 'NONE', #265, 2.000000000000000000 ) ;
#125 = CARTESIAN_POINT ( 'NONE',  ( 0.0000000000000000000, 4.000000000000000000, 0.0000000000000000000 ) ) ;
#126 = AXIS2_PLACEMENT_3D ( 'NONE', #150, #171, #180 ) ;
#127 = SURFACE_STYLE_USAGE ( .BOTH. , #358 ) ;
#128 = ORIENTED_EDGE ( 'NONE', *, *, #178, .F. ) ;
#129 = VECTOR ( 'NONE', #136, 1000.000000000000000 ) ;
#130 = CARTESIAN_POINT ( 'NONE',  ( -6.249999999999998200, 4.000000000000000000, -2.249999999999999600 ) ) ;
#131 = DIRECTION ( 'NONE',  ( -1.000000000000000000, 0.0000000000000000000, 1.051347561198064800E-016 ) ) ;
#132 = CARTESIAN_POINT ( 'NONE',  ( -6.249999999999998200, 4.000000000000000000, 2.250000000000001300 ) ) ;
#133 = VECTOR ( 'NONE', #286, 1000.000000000000000 ) ;
#134 = CARTESIAN_POINT ( 'NONE',  ( 8.250000000000001800, 4.000000000000000000, -4.250000000000000900 ) ) ;
#135 = EDGE_CURVE ( 'NONE', #257, #248, #386, .T. ) ;
#136 = DIRECTION ( 'NONE',  ( 0.0000000000000000000, 0.0000000000000000000, -1.000000000000000000 ) ) ;
#137 = DIRECTION ( 'NONE',  ( 0.0000000000000000000, 0.0000000000000000000, -1.000000000000000000 ) ) ;
#138 = CARTESIAN_POINT ( 'NONE',  ( -6.249999999999998200, 4.000000000000000000, -2.249999999999999600 ) ) ;
#139 = VECTOR ( 'NONE', #197, 1000.000000000000000 ) ;
#140 = CARTESIAN_POINT ( 'NONE',  ( 8.250000000000001800, 4.000000000000000000, -4.250000000000000900 ) ) ;
#141 = FACE_OUTER_BOUND ( 'NONE', #347, .T. ) ;
#142 = ORIENTED_EDGE ( 'NONE', *, *, #344, .F. ) ;
#143 = ORIENTED_EDGE ( 'NONE', *, *, #39, .F. ) ;
#144 = AXIS2_PLACEMENT_3D ( 'NONE', #260, #290, #114 ) ;
#145 = VERTEX_POINT ( 'NONE', #5 ) ;
#146 = FACE_BOUND ( 'NONE', #364, .T. ) ;
#147 = CARTESIAN_POINT ( 'NONE',  ( -6.249999999999998200, 4.000000000000000000, 2.250000000000001300 ) ) ;
#148 = ADVANCED_FACE ( 'NONE', ( #280 ), #226, .F. ) ;
#149 = DIRECTION ( 'NONE',  ( 1.000000000000000000, -0.0000000000000000000, -1.051347561198064800E-016 ) ) ;
#150 = CARTESIAN_POINT ( 'NONE',  ( 6.250000000000001800, 0.0000000000000000000, -2.250000000000001300 ) ) ;
#151 = EDGE_CURVE ( 'NONE', #343, #35, #184, .T. ) ;
#152 =( GEOMETRIC_REPRESENTATION_CONTEXT ( 3 ) GLOBAL_UNCERTAINTY_ASSIGNED_CONTEXT ( ( #297 ) ) GLOBAL_UNIT_ASSIGNED_CONTEXT ( ( #395, #3, #411 ) ) REPRESENTATION_CONTEXT ( 'NONE', 'WORKASPACE' ) );
#153 =( NAMED_UNIT ( * ) SI_UNIT ( $, .STERADIAN. ) SOLID_ANGLE_UNIT ( ) );
#154 = COLOUR_RGB ( '',0.7921568627450980000, 0.8196078431372548800, 0.9333333333333333500 ) ;
#155 = ORIENTED_EDGE ( 'NONE', *, *, #220, .F. ) ;
#156 = DIRECTION ( 'NONE',  ( 1.000000000000000000, 0.0000000000000000000, 0.0000000000000000000 ) ) ;
#157 = DIRECTION ( 'NONE',  ( 0.0000000000000000000, 0.0000000000000000000, 1.000000000000000000 ) ) ;
#158 = VERTEX_POINT ( 'NONE', #75 ) ;
#159 = DIRECTION ( 'NONE',  ( 0.0000000000000000000, -1.000000000000000000, 0.0000000000000000000 ) ) ;
#160 = DIRECTION ( 'NONE',  ( -0.0000000000000000000, -0.0000000000000000000, 1.000000000000000000 ) ) ;
#161 = DIRECTION ( 'NONE',  ( -0.0000000000000000000, -1.000000000000000000, -0.0000000000000000000 ) ) ;
#162 = ORIENTED_EDGE ( 'NONE', *, *, #292, .T. ) ;
#163 = EDGE_LOOP ( 'NONE', ( #195, #209, #121, #62, #304, #36, #167, #205 ) ) ;
#164 = CARTESIAN_POINT ( 'NONE',  ( 6.250000000000001800, 4.000000000000000000, 2.249999999999999600 ) ) ;
#165 = ORIENTED_EDGE ( 'NONE', *, *, #390, .F. ) ;
#166 = VECTOR ( 'NONE', #187, 1000.000000000000000 ) ;
#167 = ORIENTED_EDGE ( 'NONE', *, *, #306, .F. ) ;
#168 = SURFACE_STYLE_USAGE ( .BOTH. , #414 ) ;
#169 = AXIS2_PLACEMENT_3D ( 'NONE', #164, #199, #399 ) ;
#170 = PRODUCT ( '1504 Sliding block Part G-B', '1504 Sliding block Part G-B', '', ( #203 ) ) ;
#171 = DIRECTION ( 'NONE',  ( -0.0000000000000000000, -1.000000000000000000, -0.0000000000000000000 ) ) ;
#172 = ORIENTED_EDGE ( 'NONE', *, *, #330, .T. ) ;
#173 = PLANE ( 'NONE',  #95 ) ;
#174 = ORIENTED_EDGE ( 'NONE', *, *, #93, .F. ) ;
#175 = ORIENTED_EDGE ( 'NONE', *, *, #74, .T. ) ;
#176 =( NAMED_UNIT ( * ) PLANE_ANGLE_UNIT ( ) SI_UNIT ( $, .RADIAN. ) );
#177 = VECTOR ( 'NONE', #149, 1000.000000000000000 ) ;
#178 = EDGE_CURVE ( 'NONE', #343, #257, #317, .T. ) ;
#179 = MECHANICAL_DESIGN_GEOMETRIC_PRESENTATION_REPRESENTATION (  '', ( #293 ), #152 ) ;
#180 = DIRECTION ( 'NONE',  ( 0.0000000000000000000, 0.0000000000000000000, 1.000000000000000000 ) ) ;
#181 = CARTESIAN_POINT ( 'NONE',  ( 8.250000000000001800, 0.0000000000000000000, 4.249999999999999100 ) ) ;
#182 = ORIENTED_EDGE ( 'NONE', *, *, #39, .T. ) ;
#183 = ORIENTED_EDGE ( 'NONE', *, *, #117, .T. ) ;
#184 = LINE ( 'NONE', #322, #408 ) ;
#185 = CARTESIAN_POINT ( 'NONE',  ( -8.249999999999998200, 4.000000000000000000, 2.250000000000001300 ) ) ;
#186 = SURFACE_STYLE_FILL_AREA ( #64 ) ;
#187 = DIRECTION ( 'NONE',  ( 0.0000000000000000000, -1.000000000000000000, 0.0000000000000000000 ) ) ;
#188 = CARTESIAN_POINT ( 'NONE',  ( 8.250000000000001800, 0.0000000000000000000, 2.249999999999999600 ) ) ;
#189 = CIRCLE ( 'NONE', #403, 2.000000000000000000 ) ;
#190 = APPLICATION_PROTOCOL_DEFINITION ( 'draft international standard', 'automotive_design', 1998, #325 ) ;
#191 = ORIENTED_EDGE ( 'NONE', *, *, #239, .F. ) ;
#192 = STYLED_ITEM ( 'NONE', ( #105 ), #354 ) ;
#193 =( LENGTH_UNIT ( ) NAMED_UNIT ( * ) SI_UNIT ( .MILLI., .METRE. ) );
#194 = FACE_OUTER_BOUND ( 'NONE', #27, .T. ) ;
#195 = ORIENTED_EDGE ( 'NONE', *, *, #319, .F. ) ;
#196 = VERTEX_POINT ( 'NONE', #227 ) ;
#197 = DIRECTION ( 'NONE',  ( -0.0000000000000000000, -1.000000000000000000, -0.0000000000000000000 ) ) ;
#198 = CYLINDRICAL_SURFACE ( 'NONE', #384, 1.550000000000000000 ) ;
#199 = DIRECTION ( 'NONE',  ( 0.0000000000000000000, 1.000000000000000000, 0.0000000000000000000 ) ) ;
#200 = EDGE_CURVE ( 'NONE', #82, #380, #216, .T. ) ;
#201 = PRESENTATION_LAYER_ASSIGNMENT (  '', '', ( #293 ) ) ;
#202 = CARTESIAN_POINT ( 'NONE',  ( -6.249999999999998200, 4.000000000000000000, 4.250000000000000900 ) ) ;
#203 = PRODUCT_CONTEXT ( 'NONE', #349, 'mechanical' ) ;
#204 = VECTOR ( 'NONE', #299, 1000.000000000000000 ) ;
#205 = ORIENTED_EDGE ( 'NONE', *, *, #264, .T. ) ;
#206 = CARTESIAN_POINT ( 'NONE',  ( 6.250000000000001800, 4.000000000000000000, 2.249999999999999600 ) ) ;
#207 = FACE_OUTER_BOUND ( 'NONE', #316, .T. ) ;
#208 =( NAMED_UNIT ( * ) SI_UNIT ( $, .STERADIAN. ) SOLID_ANGLE_UNIT ( ) );
#209 = ORIENTED_EDGE ( 'NONE', *, *, #344, .T. ) ;
#210 = DIRECTION ( 'NONE',  ( 0.0000000000000000000, 0.0000000000000000000, 1.000000000000000000 ) ) ;
#211 = ORIENTED_EDGE ( 'NONE', *, *, #249, .F. ) ;
#212 = ADVANCED_FACE ( 'NONE', ( #55 ), #291, .T. ) ;
#213 = SHAPE_DEFINITION_REPRESENTATION ( #217, #354 ) ;
#214 = ADVANCED_FACE ( 'NONE', ( #141 ), #124, .T. ) ;
#215 = DIRECTION ( 'NONE',  ( 0.0000000000000000000, 1.000000000000000000, 0.0000000000000000000 ) ) ;
#216 = LINE ( 'NONE', #341, #133 ) ;
#217 = PRODUCT_DEFINITION_SHAPE ( 'NONE', 'NONE',  #245 ) ;
#218 = ADVANCED_FACE ( 'NONE', ( #389 ), #383, .T. ) ;
#219 = ADVANCED_FACE ( 'NONE', ( #207 ), #198, .F. ) ;
#220 = EDGE_CURVE ( 'NONE', #145, #296, #303, .T. ) ;
#221 = AXIS2_PLACEMENT_3D ( 'NONE', #16, #231, #110 ) ;
#222 = CARTESIAN_POINT ( 'NONE',  ( -8.249999999999998200, 0.0000000000000000000, 4.250000000000000900 ) ) ;
#223 = ADVANCED_FACE ( 'NONE', ( #38 ), #101, .F. ) ;
#224 = CARTESIAN_POINT ( 'NONE',  ( -6.249999999999998200, 0.0000000000000000000, 2.250000000000001300 ) ) ;
#225 = ORIENTED_EDGE ( 'NONE', *, *, #274, .F. ) ;
#226 = CYLINDRICAL_SURFACE ( 'NONE', #391, 1.550000000000000000 ) ;
#227 = CARTESIAN_POINT ( 'NONE',  ( 6.250000000000001800, 0.0000000000000000000, 4.249999999999999100 ) ) ;
#228 = EDGE_CURVE ( 'NONE', #13, #82, #46, .T. ) ;
#229 = DIRECTION ( 'NONE',  ( 0.0000000000000000000, 1.000000000000000000, 0.0000000000000000000 ) ) ;
#230 = CARTESIAN_POINT ( 'NONE',  ( 8.250000000000001800, 4.000000000000000000, 2.249999999999999600 ) ) ;
#231 = DIRECTION ( 'NONE',  ( -1.051347561198064800E-016, 0.0000000000000000000, -1.000000000000000000 ) ) ;
#232 = SURFACE_STYLE_FILL_AREA ( #363 ) ;
#233 = PRESENTATION_LAYER_ASSIGNMENT (  '', '', ( #192 ) ) ;
#234 = DIRECTION ( 'NONE',  ( 0.0000000000000000000, 0.0000000000000000000, -1.000000000000000000 ) ) ;
#235 = ADVANCED_FACE ( 'NONE', ( #283 ), #69, .F. ) ;
#236 = FACE_OUTER_BOUND ( 'NONE', #163, .T. ) ;
#237 = ORIENTED_EDGE ( 'NONE', *, *, #314, .F. ) ;
#238 = PLANE ( 'NONE',  #345 ) ;
#239 = EDGE_CURVE ( 'NONE', #281, #17, #275, .T. ) ;
#240 = AXIS2_PLACEMENT_3D ( 'NONE', #356, #261, #49 ) ;
#241 = CARTESIAN_POINT ( 'NONE',  ( -6.249999999999998200, 0.0000000000000000000, 4.250000000000000900 ) ) ;
#242 = CIRCLE ( 'NONE', #367, 2.000000000000000000 ) ;
#243 = ORIENTED_EDGE ( 'NONE', *, *, #359, .F. ) ;
#244 = ORIENTED_EDGE ( 'NONE', *, *, #274, .T. ) ;
#245 = PRODUCT_DEFINITION ( 'UNKNOWN', '', #374, #305 ) ;
#246 = DIRECTION ( 'NONE',  ( -0.0000000000000000000, 1.000000000000000000, -0.0000000000000000000 ) ) ;
#247 = DIRECTION ( 'NONE',  ( 0.0000000000000000000, 0.0000000000000000000, 1.000000000000000000 ) ) ;
#248 = VERTEX_POINT ( 'NONE', #21 ) ;
#249 = EDGE_CURVE ( 'NONE', #412, #13, #107, .T. ) ;
#250 = CARTESIAN_POINT ( 'NONE',  ( 8.250000000000001800, 0.0000000000000000000, 4.249999999999999100 ) ) ;
#251 = VERTEX_POINT ( 'NONE', #202 ) ;
#252 = VECTOR ( 'NONE', #60, 1000.000000000000000 ) ;
#253 = ORIENTED_EDGE ( 'NONE', *, *, #409, .T. ) ;
#254 = DIRECTION ( 'NONE',  ( -0.0000000000000000000, -1.000000000000000000, -0.0000000000000000000 ) ) ;
#255 = ORIENTED_EDGE ( 'NONE', *, *, #390, .T. ) ;
#256 = ORIENTED_EDGE ( 'NONE', *, *, #228, .F. ) ;
#257 = VERTEX_POINT ( 'NONE', #324 ) ;
#258 = DIRECTION ( 'NONE',  ( -0.0000000000000000000, 1.000000000000000000, -0.0000000000000000000 ) ) ;
#259 = APPLICATION_PROTOCOL_DEFINITION ( 'draft international standard', 'automotive_design', 1998, #349 ) ;
#260 = CARTESIAN_POINT ( 'NONE',  ( 0.0000000000000000000, 4.000000000000000000, 0.0000000000000000000 ) ) ;
#261 = DIRECTION ( 'NONE',  ( 0.0000000000000000000, 1.000000000000000000, 0.0000000000000000000 ) ) ;
#262 = CIRCLE ( 'NONE', #126, 2.000000000000000000 ) ;
#263 = DIRECTION ( 'NONE',  ( 0.0000000000000000000, 0.0000000000000000000, -1.000000000000000000 ) ) ;
#264 = EDGE_CURVE ( 'NONE', #380, #412, #357, .T. ) ;
#265 = AXIS2_PLACEMENT_3D ( 'NONE', #147, #372, #263 ) ;
#266 = CARTESIAN_POINT ( 'NONE',  ( 6.250000000000001800, 4.000000000000000000, -2.250000000000001300 ) ) ;
#267 = DIRECTION ( 'NONE',  ( 1.051347561198064800E-016, -0.0000000000000000000, 1.000000000000000000 ) ) ;
#268 = UNCERTAINTY_MEASURE_WITH_UNIT (LENGTH_MEASURE( 1.000000000000000100E-005 ), #193, 'distance_accuracy_value', 'NONE');
#269 = ORIENTED_EDGE ( 'NONE', *, *, #306, .T. ) ;
#270 = ORIENTED_EDGE ( 'NONE', *, *, #228, .T. ) ;
#271 = VECTOR ( 'NONE', #131, 1000.000000000000000 ) ;
#272 = CARTESIAN_POINT ( 'NONE',  ( 0.0000000000000000000, 0.0000000000000000000, 0.0000000000000000000 ) ) ;
#273 = COLOUR_RGB ( '',0.7921568627450980000, 0.8196078431372548800, 0.9333333333333333500 ) ;
#274 = EDGE_CURVE ( 'NONE', #296, #251, #189, .T. ) ;
#275 = CIRCLE ( 'NONE', #240, 1.550000000000000000 ) ;
#276 = CARTESIAN_POINT ( 'NONE',  ( 0.0000000000000000000, 4.000000000000000000, 0.0000000000000000000 ) ) ;
#277 = DIRECTION ( 'NONE',  ( 0.0000000000000000000, -1.000000000000000000, 0.0000000000000000000 ) ) ;
#278 = VERTEX_POINT ( 'NONE', #415 ) ;
#279 = FACE_OUTER_BOUND ( 'NONE', #329, .T. ) ;
#280 = FACE_OUTER_BOUND ( 'NONE', #31, .T. ) ;
#281 = VERTEX_POINT ( 'NONE', #362 ) ;
#282 = CARTESIAN_POINT ( 'NONE',  ( 0.0000000000000000000, 4.000000000000000000, 0.0000000000000000000 ) ) ;
#283 = FACE_OUTER_BOUND ( 'NONE', #310, .T. ) ;
#284 = CARTESIAN_POINT ( 'NONE',  ( -8.249999999999998200, 0.0000000000000000000, -2.249999999999999600 ) ) ;
#285 = EDGE_CURVE ( 'NONE', #281, #158, #96, .T. ) ;
#286 = DIRECTION ( 'NONE',  ( -0.0000000000000000000, -1.000000000000000000, 0.0000000000000000000 ) ) ;
#287 = DIRECTION ( 'NONE',  ( 0.0000000000000000000, 0.0000000000000000000, -1.000000000000000000 ) ) ;
#288 = LINE ( 'NONE', #332, #204 ) ;
#289 = ORIENTED_EDGE ( 'NONE', *, *, #151, .F. ) ;
#290 = DIRECTION ( 'NONE',  ( 0.0000000000000000000, 1.000000000000000000, 0.0000000000000000000 ) ) ;
#291 = CYLINDRICAL_SURFACE ( 'NONE', #388, 2.000000000000000000 ) ;
#292 = EDGE_CURVE ( 'NONE', #115, #196, #370, .T. ) ;
#293 = STYLED_ITEM ( 'NONE', ( #323 ), #67 ) ;
#294 = CARTESIAN_POINT ( 'NONE',  ( 6.250000000000001800, 4.000000000000000000, 4.249999999999999100 ) ) ;
#295 = PLANE ( 'NONE',  #68 ) ;
#296 = VERTEX_POINT ( 'NONE', #185 ) ;
#297 = UNCERTAINTY_MEASURE_WITH_UNIT (LENGTH_MEASURE( 1.000000000000000100E-005 ), #395, 'distance_accuracy_value', 'NONE');
#298 = AXIS2_PLACEMENT_3D ( 'NONE', #42, #379, #156 ) ;
#299 = DIRECTION ( 'NONE',  ( 1.000000000000000000, -0.0000000000000000000, -1.051347561198064800E-016 ) ) ;
#300 = ORIENTED_EDGE ( 'NONE', *, *, #302, .F. ) ;
#301 = VECTOR ( 'NONE', #71, 1000.000000000000000 ) ;
#302 = EDGE_CURVE ( 'NONE', #248, #278, #348, .T. ) ;
#303 = LINE ( 'NONE', #321, #398 ) ;
#304 = ORIENTED_EDGE ( 'NONE', *, *, #292, .F. ) ;
#305 = PRODUCT_DEFINITION_CONTEXT ( 'detailed design', #325, 'design' ) ;
#306 = EDGE_CURVE ( 'NONE', #380, #145, #116, .T. ) ;
#307 = AXIS2_PLACEMENT_3D ( 'NONE', #353, #50, #157 ) ;
#308 = DIRECTION ( 'NONE',  ( 0.0000000000000000000, 1.000000000000000000, 0.0000000000000000000 ) ) ;
#309 = UNCERTAINTY_MEASURE_WITH_UNIT (LENGTH_MEASURE( 1.000000000000000100E-005 ), #54, 'distance_accuracy_value', 'NONE');
#310 = EDGE_LOOP ( 'NONE', ( #162, #94, #102, #342 ) ) ;
#311 = DIRECTION ( 'NONE',  ( 0.0000000000000000000, 0.0000000000000000000, 1.000000000000000000 ) ) ;
#312 = CIRCLE ( 'NONE', #144, 1.550000000000000000 ) ;
#313 = CARTESIAN_POINT ( 'NONE',  ( 1.898202538678397500E-016, 0.0000000000000000000, 1.550000000000000000 ) ) ;
#314 = EDGE_CURVE ( 'NONE', #115, #145, #84, .T. ) ;
#315 = FILL_AREA_STYLE_COLOUR ( '', #273 ) ;
#316 = EDGE_LOOP ( 'NONE', ( #26, #350, #43, #28 ) ) ;
#317 = LINE ( 'NONE', #400, #66 ) ;
#318 = DIRECTION ( 'NONE',  ( 0.0000000000000000000, 0.0000000000000000000, -1.000000000000000000 ) ) ;
#319 = EDGE_CURVE ( 'NONE', #278, #412, #8, .T. ) ;
#320 = EDGE_LOOP ( 'NONE', ( #269, #88, #143, #328 ) ) ;
#321 = CARTESIAN_POINT ( 'NONE',  ( -8.249999999999998200, 4.000000000000000000, 2.250000000000001300 ) ) ;
#322 = CARTESIAN_POINT ( 'NONE',  ( 8.250000000000001800, 4.000000000000000000, 2.249999999999999600 ) ) ;
#323 = PRESENTATION_STYLE_ASSIGNMENT (( #127 ) ) ;
#324 = CARTESIAN_POINT ( 'NONE',  ( 8.250000000000001800, 4.000000000000000000, -2.250000000000001300 ) ) ;
#325 = APPLICATION_CONTEXT ( 'automotive_design' ) ;
#326 = PRODUCT_RELATED_PRODUCT_CATEGORY ( 'part', '', ( #170 ) ) ;
#327 = CIRCLE ( 'NONE', #307, 1.550000000000000000 ) ;
#328 = ORIENTED_EDGE ( 'NONE', *, *, #200, .T. ) ;
#329 = EDGE_LOOP ( 'NONE', ( #407, #373, #12, #270, #182, #244, #175, #352 ) ) ;
#330 = EDGE_CURVE ( 'NONE', #413, #158, #327, .T. ) ;
#331 = DIRECTION ( 'NONE',  ( -0.0000000000000000000, -1.000000000000000000, -0.0000000000000000000 ) ) ;
#332 = CARTESIAN_POINT ( 'NONE',  ( 8.250000000000001800, 4.000000000000000000, 4.249999999999999100 ) ) ;
#333 = VERTEX_POINT ( 'NONE', #294 ) ;
#334 = CIRCLE ( 'NONE', #369, 1.550000000000000000 ) ;
#335 = EDGE_CURVE ( 'NONE', #158, #413, #334, .T. ) ;
#336 = AXIS2_PLACEMENT_3D ( 'NONE', #140, #267, #7 ) ;
#337 = VECTOR ( 'NONE', #87, 1000.000000000000000 ) ;
#338 = EDGE_LOOP ( 'NONE', ( #243, #351, #33, #289 ) ) ;
#339 = ORIENTED_EDGE ( 'NONE', *, *, #200, .F. ) ;
#340 = ADVANCED_FACE ( 'NONE', ( #236, #146 ), #295, .F. ) ;
#341 = CARTESIAN_POINT ( 'NONE',  ( -8.249999999999998200, 4.000000000000000000, -2.249999999999999600 ) ) ;
#342 = ORIENTED_EDGE ( 'NONE', *, *, #93, .T. ) ;
#343 = VERTEX_POINT ( 'NONE', #230 ) ;
#344 = EDGE_CURVE ( 'NONE', #278, #123, #262, .T. ) ;
#345 = AXIS2_PLACEMENT_3D ( 'NONE', #282, #308, #52 ) ;
#346 = ORIENTED_EDGE ( 'NONE', *, *, #335, .T. ) ;
#347 = EDGE_LOOP ( 'NONE', ( #225, #155, #237, #174 ) ) ;
#348 = LINE ( 'NONE', #92, #166 ) ;
#349 = APPLICATION_CONTEXT ( 'automotive_design' ) ;
#350 = ORIENTED_EDGE ( 'NONE', *, *, #368, .T. ) ;
#351 = ORIENTED_EDGE ( 'NONE', *, *, #56, .F. ) ;
#352 = ORIENTED_EDGE ( 'NONE', *, *, #359, .T. ) ;
#353 = CARTESIAN_POINT ( 'NONE',  ( 0.0000000000000000000, 0.0000000000000000000, 0.0000000000000000000 ) ) ;
#354 = ADVANCED_BREP_SHAPE_REPRESENTATION ( '1504 Sliding block Part G-B', ( #67, #298 ), #51 ) ;
#355 = ORIENTED_EDGE ( 'NONE', *, *, #135, .F. ) ;
#356 = CARTESIAN_POINT ( 'NONE',  ( 0.0000000000000000000, 4.000000000000000000, 0.0000000000000000000 ) ) ;
#357 = CIRCLE ( 'NONE', #30, 2.000000000000000000 ) ;
#358 = SURFACE_SIDE_STYLE ('',( #232 ) ) ;
#359 = EDGE_CURVE ( 'NONE', #333, #343, #406, .T. ) ;
#360 = AXIS2_PLACEMENT_3D ( 'NONE', #224, #70, #247 ) ;
#361 = CARTESIAN_POINT ( 'NONE',  ( 1.898202538678397500E-016, 4.000000000000000000, 1.550000000000000000 ) ) ;
#362 = CARTESIAN_POINT ( 'NONE',  ( 0.0000000000000000000, 4.000000000000000000, -1.550000000000000000 ) ) ;
#363 = FILL_AREA_STYLE ('',( #59 ) ) ;
#364 = EDGE_LOOP ( 'NONE', ( #346, #172 ) ) ;
#365 = VECTOR ( 'NONE', #246, 1000.000000000000000 ) ;
#366 = ORIENTED_EDGE ( 'NONE', *, *, #285, .T. ) ;
#367 = AXIS2_PLACEMENT_3D ( 'NONE', #394, #1, #311 ) ;
#368 = EDGE_CURVE ( 'NONE', #17, #413, #72, .T. ) ;
#369 = AXIS2_PLACEMENT_3D ( 'NONE', #25, #229, #402 ) ;
#370 = LINE ( 'NONE', #250, #177 ) ;
#371 = CARTESIAN_POINT ( 'NONE',  ( -6.249999999999998200, 0.0000000000000000000, -4.249999999999999100 ) ) ;
#372 = DIRECTION ( 'NONE',  ( 0.0000000000000000000, -1.000000000000000000, 0.0000000000000000000 ) ) ;
#373 = ORIENTED_EDGE ( 'NONE', *, *, #135, .T. ) ;
#374 = PRODUCT_DEFINITION_FORMATION_WITH_SPECIFIED_SOURCE ( 'ANY', '', #170, .NOT_KNOWN. ) ;
#375 =( NAMED_UNIT ( * ) PLANE_ANGLE_UNIT ( ) SI_UNIT ( $, .RADIAN. ) );
#376 = EDGE_LOOP ( 'NONE', ( #256, #211, #378, #339 ) ) ;
#377 = LINE ( 'NONE', #73, #53 ) ;
#378 = ORIENTED_EDGE ( 'NONE', *, *, #264, .F. ) ;
#379 = DIRECTION ( 'NONE',  ( 0.0000000000000000000, 0.0000000000000000000, 1.000000000000000000 ) ) ;
#380 = VERTEX_POINT ( 'NONE', #284 ) ;
#381 = EDGE_CURVE ( 'NONE', #248, #13, #396, .T. ) ;
#382 = DIRECTION ( 'NONE',  ( 0.0000000000000000000, 0.0000000000000000000, 1.000000000000000000 ) ) ;
#383 = CYLINDRICAL_SURFACE ( 'NONE', #10, 2.000000000000000000 ) ;
#384 = AXIS2_PLACEMENT_3D ( 'NONE', #276, #331, #287 ) ;
#385 = DIRECTION ( 'NONE',  ( 0.0000000000000000000, -1.000000000000000000, 0.0000000000000000000 ) ) ;
#386 = CIRCLE ( 'NONE', #118, 2.000000000000000000 ) ;
#387 = CARTESIAN_POINT ( 'NONE',  ( 8.250000000000001800, 0.0000000000000000000, -4.250000000000000900 ) ) ;
#388 = AXIS2_PLACEMENT_3D ( 'NONE', #138, #277, #318 ) ;
#389 = FACE_OUTER_BOUND ( 'NONE', #112, .T. ) ;
#390 = EDGE_CURVE ( 'NONE', #17, #281, #312, .T. ) ;
#391 = AXIS2_PLACEMENT_3D ( 'NONE', #125, #161, #78 ) ;
#392 = DIRECTION ( 'NONE',  ( 0.0000000000000000000, 0.0000000000000000000, -1.000000000000000000 ) ) ;
#393 = DIRECTION ( 'NONE',  ( 0.0000000000000000000, -1.000000000000000000, 0.0000000000000000000 ) ) ;
#394 = CARTESIAN_POINT ( 'NONE',  ( 6.250000000000001800, 0.0000000000000000000, 2.249999999999999600 ) ) ;
#395 =( LENGTH_UNIT ( ) NAMED_UNIT ( * ) SI_UNIT ( .MILLI., .METRE. ) );
#396 = LINE ( 'NONE', #134, #301 ) ;
#397 = DIRECTION ( 'NONE',  ( 0.0000000000000000000, 1.000000000000000000, 0.0000000000000000000 ) ) ;
#398 = VECTOR ( 'NONE', #37, 1000.000000000000000 ) ;
#399 = DIRECTION ( 'NONE',  ( 0.0000000000000000000, 0.0000000000000000000, 1.000000000000000000 ) ) ;
#400 = CARTESIAN_POINT ( 'NONE',  ( 8.250000000000001800, 4.000000000000000000, 4.249999999999999100 ) ) ;
#401 = DIRECTION ( 'NONE',  ( 0.0000000000000000000, 1.000000000000000000, 0.0000000000000000000 ) ) ;
#402 = DIRECTION ( 'NONE',  ( 0.0000000000000000000, 0.0000000000000000000, 1.000000000000000000 ) ) ;
#403 = AXIS2_PLACEMENT_3D ( 'NONE', #132, #397, #48 ) ;
#404 = DIRECTION ( 'NONE',  ( 0.0000000000000000000, 0.0000000000000000000, 1.000000000000000000 ) ) ;
#405 = CARTESIAN_POINT ( 'NONE',  ( 6.250000000000001800, 4.000000000000000000, -2.250000000000001300 ) ) ;
#406 = CIRCLE ( 'NONE', #169, 2.000000000000000000 ) ;
#407 = ORIENTED_EDGE ( 'NONE', *, *, #178, .T. ) ;
#408 = VECTOR ( 'NONE', #159, 1000.000000000000000 ) ;
#409 = EDGE_CURVE ( 'NONE', #35, #123, #63, .T. ) ;
#410 = VECTOR ( 'NONE', #160, 1000.000000000000000 ) ;
#411 =( NAMED_UNIT ( * ) SI_UNIT ( $, .STERADIAN. ) SOLID_ANGLE_UNIT ( ) );
#412 = VERTEX_POINT ( 'NONE', #371 ) ;
#413 = VERTEX_POINT ( 'NONE', #313 ) ;
#414 = SURFACE_SIDE_STYLE ('',( #186 ) ) ;
#415 = CARTESIAN_POINT ( 'NONE',  ( 6.250000000000001800, 0.0000000000000000000, -4.250000000000000900 ) ) ;
#416 = ORIENTED_EDGE ( 'NONE', *, *, #302, .T. ) ;
ENDSEC;
END-ISO-10303-21;
