ISO-10303-21;
HEADER;
FILE_DESCRIPTION (( 'STEP AP214' ),
    '1' );
FILE_NAME ('1201-Z1P-A.STEP',
    '2013-05-15T14:56:38',
    ( '3DAssist' ),
    ( '' ),
    'SwSTEP 2.0',
    'SolidWorks 2013',
    '' );
FILE_SCHEMA (( 'AUTOMOTIVE_DESIGN' ));
ENDSEC;

DATA;
#1 =( GEOMETRIC_REPRESENTATION_CONTEXT ( 3 ) GLOBAL_UNCERTAINTY_ASSIGNED_CONTEXT ( ( #101 ) ) GLOBAL_UNIT_ASSIGNED_CONTEXT ( ( #37, #61, #24 ) ) REPRESENTATION_CONTEXT ( 'NONE', 'WORKASPACE' ) );
#2 = CARTESIAN_POINT ( 'NONE',  ( 0.0000000000000000000, 0.0000000000000000000, 0.0000000000000000000 ) ) ;
#3 = EDGE_LOOP ( 'NONE', ( #113 ) ) ;
#4 = FACE_OUTER_BOUND ( 'NONE', #15, .T. ) ;
#5 = PRESENTATION_LAYER_ASSIGNMENT (  '', '', ( #10 ) ) ;
#6 = ADVANCED_FACE ( 'NONE', ( #104, #4 ), #43, .T. ) ;
#7 = ADVANCED_FACE ( 'NONE', ( #130, #123 ), #124, .T. ) ;
#8 = ADVANCED_FACE ( 'NONE', ( #116, #85 ), #92, .F. ) ;
#9 = ADVANCED_FACE ( 'NONE', ( #120, #66 ), #53, .F. ) ;
#10 = STYLED_ITEM ( 'NONE', ( #112 ), #103 ) ;
#11 = DIRECTION ( 'NONE',  ( 0.0000000000000000000, 0.0000000000000000000, -1.000000000000000000 ) ) ;
#12 = APPLICATION_CONTEXT ( 'automotive_design' ) ;
#13 = PRODUCT_DEFINITION ( 'UNKNOWN', '', #70, #133 ) ;
#14 = ORIENTED_EDGE ( 'NONE', *, *, #128, .F. ) ;
#15 = EDGE_LOOP ( 'NONE', ( #83 ) ) ;
#16 =( LENGTH_UNIT ( ) NAMED_UNIT ( * ) SI_UNIT ( .MILLI., .METRE. ) );
#17 = SURFACE_STYLE_USAGE ( .BOTH. , #23 ) ;
#18 = PRODUCT_CONTEXT ( 'NONE', #25, 'mechanical' ) ;
#19 =( NAMED_UNIT ( * ) SI_UNIT ( $, .STERADIAN. ) SOLID_ANGLE_UNIT ( ) );
#20 = DIRECTION ( 'NONE',  ( 0.0000000000000000000, 0.0000000000000000000, 1.000000000000000000 ) ) ;
#21 = AXIS2_PLACEMENT_3D ( 'NONE', #40, #35, #33 ) ;
#22 =( NAMED_UNIT ( * ) PLANE_ANGLE_UNIT ( ) SI_UNIT ( $, .RADIAN. ) );
#23 = SURFACE_SIDE_STYLE ('',( #27 ) ) ;
#24 =( NAMED_UNIT ( * ) SI_UNIT ( $, .STERADIAN. ) SOLID_ANGLE_UNIT ( ) );
#25 = APPLICATION_CONTEXT ( 'automotive_design' ) ;
#26 = APPLICATION_PROTOCOL_DEFINITION ( 'draft international standard', 'automotive_design', 1998, #25 ) ;
#27 = SURFACE_STYLE_FILL_AREA ( #62 ) ;
#28 = CARTESIAN_POINT ( 'NONE',  ( 0.0000000000000000000, 0.0000000000000000000, 1.600000000000000100 ) ) ;
#29 = DIRECTION ( 'NONE',  ( 0.0000000000000000000, 0.0000000000000000000, 1.000000000000000000 ) ) ;
#30 = DIRECTION ( 'NONE',  ( 0.0000000000000000000, 1.000000000000000000, -0.0000000000000000000 ) ) ;
#31 = CARTESIAN_POINT ( 'NONE',  ( 0.0000000000000000000, 0.0000000000000000000, 0.0000000000000000000 ) ) ;
#32 = CARTESIAN_POINT ( 'NONE',  ( 0.0000000000000000000, 0.8000000000000000400, 1.600000000000000100 ) ) ;
#33 = DIRECTION ( 'NONE',  ( 0.0000000000000000000, 0.0000000000000000000, 1.000000000000000000 ) ) ;
#34 =( LENGTH_UNIT ( ) NAMED_UNIT ( * ) SI_UNIT ( .MILLI., .METRE. ) );
#35 = DIRECTION ( 'NONE',  ( 0.0000000000000000000, 1.000000000000000000, -0.0000000000000000000 ) ) ;
#36 = DIRECTION ( 'NONE',  ( 0.0000000000000000000, 1.000000000000000000, -0.0000000000000000000 ) ) ;
#37 =( LENGTH_UNIT ( ) NAMED_UNIT ( * ) SI_UNIT ( .MILLI., .METRE. ) );
#38 = CARTESIAN_POINT ( 'NONE',  ( 0.0000000000000000000, 0.8000000000000000400, 4.500000000000000000 ) ) ;
#39 = SURFACE_STYLE_USAGE ( .BOTH. , #55 ) ;
#40 = CARTESIAN_POINT ( 'NONE',  ( 0.0000000000000000000, 0.8000000000000000400, 0.0000000000000000000 ) ) ;
#41 = DIRECTION ( 'NONE',  ( 0.0000000000000000000, 0.0000000000000000000, 1.000000000000000000 ) ) ;
#42 = CARTESIAN_POINT ( 'NONE',  ( 0.0000000000000000000, 0.8000000000000000400, 0.0000000000000000000 ) ) ;
#43 = PLANE ( 'NONE',  #111 ) ;
#44 = DIRECTION ( 'NONE',  ( 0.0000000000000000000, 0.0000000000000000000, 1.000000000000000000 ) ) ;
#45 = DIRECTION ( 'NONE',  ( 0.0000000000000000000, 1.000000000000000000, -0.0000000000000000000 ) ) ;
#46 = DIRECTION ( 'NONE',  ( -0.0000000000000000000, -1.000000000000000000, -0.0000000000000000000 ) ) ;
#47 = CARTESIAN_POINT ( 'NONE',  ( 0.0000000000000000000, 0.0000000000000000000, 0.0000000000000000000 ) ) ;
#48 = CARTESIAN_POINT ( 'NONE',  ( 0.0000000000000000000, 0.8000000000000000400, 0.0000000000000000000 ) ) ;
#49 = COLOUR_RGB ( '',1.000000000000000000, 1.000000000000000000, 1.000000000000000000 ) ;
#50 = DIRECTION ( 'NONE',  ( -0.0000000000000000000, -1.000000000000000000, -0.0000000000000000000 ) ) ;
#51 = DIRECTION ( 'NONE',  ( 0.0000000000000000000, 1.000000000000000000, -0.0000000000000000000 ) ) ;
#52 = FILL_AREA_STYLE_COLOUR ( '', #49 ) ;
#53 = PLANE ( 'NONE',  #96 ) ;
#54 = DIRECTION ( 'NONE',  ( 0.0000000000000000000, 0.0000000000000000000, 1.000000000000000000 ) ) ;
#55 = SURFACE_SIDE_STYLE ('',( #126 ) ) ;
#56 = CARTESIAN_POINT ( 'NONE',  ( 0.0000000000000000000, 0.0000000000000000000, 4.500000000000000000 ) ) ;
#57 = DIRECTION ( 'NONE',  ( 0.0000000000000000000, 1.000000000000000000, -0.0000000000000000000 ) ) ;
#58 = CARTESIAN_POINT ( 'NONE',  ( 0.0000000000000000000, 0.0000000000000000000, 0.0000000000000000000 ) ) ;
#59 =( NAMED_UNIT ( * ) PLANE_ANGLE_UNIT ( ) SI_UNIT ( $, .RADIAN. ) );
#60 = DIRECTION ( 'NONE',  ( 0.0000000000000000000, 0.0000000000000000000, -1.000000000000000000 ) ) ;
#61 =( NAMED_UNIT ( * ) PLANE_ANGLE_UNIT ( ) SI_UNIT ( $, .RADIAN. ) );
#62 = FILL_AREA_STYLE ('',( #82 ) ) ;
#63 = VERTEX_POINT ( 'NONE', #38 ) ;
#64 = PRESENTATION_STYLE_ASSIGNMENT (( #39 ) ) ;
#65 = AXIS2_PLACEMENT_3D ( 'NONE', #58, #36, #41 ) ;
#66 = FACE_OUTER_BOUND ( 'NONE', #90, .T. ) ;
#67 = AXIS2_PLACEMENT_3D ( 'NONE', #2, #20, #69 ) ;
#68 = EDGE_LOOP ( 'NONE', ( #119 ) ) ;
#69 = DIRECTION ( 'NONE',  ( 1.000000000000000000, 0.0000000000000000000, 0.0000000000000000000 ) ) ;
#70 = PRODUCT_DEFINITION_FORMATION_WITH_SPECIFIED_SOURCE ( 'ANY', '', #117, .NOT_KNOWN. ) ;
#71 = VERTEX_POINT ( 'NONE', #56 ) ;
#72 = ORIENTED_EDGE ( 'NONE', *, *, #114, .F. ) ;
#73 = CIRCLE ( 'NONE', #21, 1.600000000000000100 ) ;
#74 = EDGE_LOOP ( 'NONE', ( #99 ) ) ;
#75 = APPLICATION_PROTOCOL_DEFINITION ( 'draft international standard', 'automotive_design', 1998, #12 ) ;
#76 = AXIS2_PLACEMENT_3D ( 'NONE', #106, #57, #102 ) ;
#77 =( GEOMETRIC_REPRESENTATION_CONTEXT ( 3 ) GLOBAL_UNCERTAINTY_ASSIGNED_CONTEXT ( ( #94 ) ) GLOBAL_UNIT_ASSIGNED_CONTEXT ( ( #34, #59, #86 ) ) REPRESENTATION_CONTEXT ( 'NONE', 'WORKASPACE' ) );
#78 = PRODUCT_RELATED_PRODUCT_CATEGORY ( 'part', '', ( #117 ) ) ;
#79 = MECHANICAL_DESIGN_GEOMETRIC_PRESENTATION_REPRESENTATION (  '', ( #110 ), #77 ) ;
#80 = PRODUCT_DEFINITION_SHAPE ( 'NONE', 'NONE',  #13 ) ;
#81 = MECHANICAL_DESIGN_GEOMETRIC_PRESENTATION_REPRESENTATION (  '', ( #10 ), #84 ) ;
#82 = FILL_AREA_STYLE_COLOUR ( '', #132 ) ;
#83 = ORIENTED_EDGE ( 'NONE', *, *, #114, .T. ) ;
#84 =( GEOMETRIC_REPRESENTATION_CONTEXT ( 3 ) GLOBAL_UNCERTAINTY_ASSIGNED_CONTEXT ( ( #88 ) ) GLOBAL_UNIT_ASSIGNED_CONTEXT ( ( #16, #22, #19 ) ) REPRESENTATION_CONTEXT ( 'NONE', 'WORKASPACE' ) );
#85 = FACE_OUTER_BOUND ( 'NONE', #68, .T. ) ;
#86 =( NAMED_UNIT ( * ) SI_UNIT ( $, .STERADIAN. ) SOLID_ANGLE_UNIT ( ) );
#87 = CLOSED_SHELL ( 'NONE', ( #8, #7, #6, #9 ) ) ;
#88 = UNCERTAINTY_MEASURE_WITH_UNIT (LENGTH_MEASURE( 1.000000000000000100E-005 ), #16, 'distance_accuracy_value', 'NONE');
#89 = CARTESIAN_POINT ( 'NONE',  ( 0.0000000000000000000, 0.8000000000000000400, 0.0000000000000000000 ) ) ;
#90 = EDGE_LOOP ( 'NONE', ( #105 ) ) ;
#91 = PRESENTATION_LAYER_ASSIGNMENT (  '', '', ( #110 ) ) ;
#92 = CYLINDRICAL_SURFACE ( 'NONE', #97, 1.600000000000000100 ) ;
#93 = VERTEX_POINT ( 'NONE', #32 ) ;
#94 = UNCERTAINTY_MEASURE_WITH_UNIT (LENGTH_MEASURE( 1.000000000000000100E-005 ), #34, 'distance_accuracy_value', 'NONE');
#95 = CIRCLE ( 'NONE', #109, 1.600000000000000100 ) ;
#96 = AXIS2_PLACEMENT_3D ( 'NONE', #47, #51, #54 ) ;
#97 = AXIS2_PLACEMENT_3D ( 'NONE', #48, #50, #11 ) ;
#98 = MANIFOLD_SOLID_BREP ( 'Boss-Extrude1', #87 ) ;
#99 = ORIENTED_EDGE ( 'NONE', *, *, #128, .T. ) ;
#100 = FILL_AREA_STYLE ('',( #52 ) ) ;
#101 = UNCERTAINTY_MEASURE_WITH_UNIT (LENGTH_MEASURE( 1.000000000000000100E-005 ), #37, 'distance_accuracy_value', 'NONE');
#102 = DIRECTION ( 'NONE',  ( 0.0000000000000000000, 0.0000000000000000000, 1.000000000000000000 ) ) ;
#103 = ADVANCED_BREP_SHAPE_REPRESENTATION ( '1201-Z1P-A', ( #98, #67 ), #1 ) ;
#104 = FACE_BOUND ( 'NONE', #115, .T. ) ;
#105 = ORIENTED_EDGE ( 'NONE', *, *, #121, .F. ) ;
#106 = CARTESIAN_POINT ( 'NONE',  ( 0.0000000000000000000, 0.8000000000000000400, 0.0000000000000000000 ) ) ;
#107 = CIRCLE ( 'NONE', #65, 4.500000000000000000 ) ;
#108 = AXIS2_PLACEMENT_3D ( 'NONE', #42, #46, #60 ) ;
#109 = AXIS2_PLACEMENT_3D ( 'NONE', #31, #30, #29 ) ;
#110 = STYLED_ITEM ( 'NONE', ( #64 ), #98 ) ;
#111 = AXIS2_PLACEMENT_3D ( 'NONE', #89, #45, #44 ) ;
#112 = PRESENTATION_STYLE_ASSIGNMENT (( #17 ) ) ;
#113 = ORIENTED_EDGE ( 'NONE', *, *, #121, .T. ) ;
#114 = EDGE_CURVE ( 'NONE', #63, #63, #127, .T. ) ;
#115 = EDGE_LOOP ( 'NONE', ( #14 ) ) ;
#116 = FACE_OUTER_BOUND ( 'NONE', #74, .T. ) ;
#117 = PRODUCT ( '1201-Z1P-A', '1201-Z1P-A', '', ( #18 ) ) ;
#118 = VERTEX_POINT ( 'NONE', #28 ) ;
#119 = ORIENTED_EDGE ( 'NONE', *, *, #129, .F. ) ;
#120 = FACE_BOUND ( 'NONE', #125, .T. ) ;
#121 = EDGE_CURVE ( 'NONE', #71, #71, #107, .T. ) ;
#122 = SHAPE_DEFINITION_REPRESENTATION ( #80, #103 ) ;
#123 = FACE_OUTER_BOUND ( 'NONE', #3, .T. ) ;
#124 = CYLINDRICAL_SURFACE ( 'NONE', #108, 4.500000000000000000 ) ;
#125 = EDGE_LOOP ( 'NONE', ( #134 ) ) ;
#126 = SURFACE_STYLE_FILL_AREA ( #100 ) ;
#127 = CIRCLE ( 'NONE', #76, 4.500000000000000000 ) ;
#128 = EDGE_CURVE ( 'NONE', #93, #93, #73, .T. ) ;
#129 = EDGE_CURVE ( 'NONE', #118, #118, #95, .T. ) ;
#130 = FACE_OUTER_BOUND ( 'NONE', #131, .T. ) ;
#131 = EDGE_LOOP ( 'NONE', ( #72 ) ) ;
#132 = COLOUR_RGB ( '',1.000000000000000000, 1.000000000000000000, 1.000000000000000000 ) ;
#133 = PRODUCT_DEFINITION_CONTEXT ( 'detailed design', #12, 'design' ) ;
#134 = ORIENTED_EDGE ( 'NONE', *, *, #129, .T. ) ;
ENDSEC;
END-ISO-10303-21;
