ISO-10303-21;
HEADER;
FILE_DESCRIPTION(('STEP AP214'),'1');
FILE_NAME('U:/UM2/1154_Print_Table_Glass_(x1)/1154-B2P-A.step','2014-03-27T09:37:37',(' '),(' '),'Spatial InterOp 3D',' ',' ');
FILE_SCHEMA(('automotive_design'));
ENDSEC;
DATA;
#1=MECHANICAL_DESIGN_GEOMETRIC_PRESENTATION_REPRESENTATION(' ',(#10,#11,#12,#13,#14,#15,#16,#17,#18,#19,#20),#6);
#2=PRODUCT_DEFINITION_CONTEXT('',#21,'design');
#3=APPLICATION_PROTOCOL_DEFINITION('INTERNATIONAL STANDARD','automotive_design',1994,#21);
#4=PRODUCT_CATEGORY_RELATIONSHIP('NONE','NONE',#22,#23);
#5=SHAPE_DEFINITION_REPRESENTATION(#24,#25);
#6= (GEOMETRIC_REPRESENTATION_CONTEXT(3)GLOBAL_UNCERTAINTY_ASSIGNED_CONTEXT((#28))GLOBAL_UNIT_ASSIGNED_CONTEXT((#30,#31,#32))REPRESENTATION_CONTEXT('NONE','WORKSPACE'));
#10=STYLED_ITEM('',(#34),#35);
#11=STYLED_ITEM('',(#36),#37);
#12=STYLED_ITEM('',(#38),#39);
#13=STYLED_ITEM('',(#40),#41);
#14=STYLED_ITEM('',(#42),#43);
#15=STYLED_ITEM('',(#44),#45);
#16=STYLED_ITEM('',(#46),#47);
#17=STYLED_ITEM('',(#48),#49);
#18=STYLED_ITEM('',(#50),#51);
#19=STYLED_ITEM('',(#52),#53);
#20=STYLED_ITEM('',(#54),#55);
#21=APPLICATION_CONTEXT(' ');
#22=PRODUCT_CATEGORY('part','NONE');
#23=PRODUCT_RELATED_PRODUCT_CATEGORY('detail',' ',(#56));
#24=PRODUCT_DEFINITION_SHAPE('NONE','NONE',#57);
#25=ADVANCED_BREP_SHAPE_REPRESENTATION('1',(#37,#58),#6);
#28=UNCERTAINTY_MEASURE_WITH_UNIT(LENGTH_MEASURE(1.0E-008),#30,'','');
#30= (CONVERSION_BASED_UNIT('METRE',#61)LENGTH_UNIT()NAMED_UNIT(#64));
#31= (NAMED_UNIT(#66)PLANE_ANGLE_UNIT()SI_UNIT($,.RADIAN.));
#32= (NAMED_UNIT(#66)SOLID_ANGLE_UNIT()SI_UNIT($,.STERADIAN.));
#34=PRESENTATION_STYLE_ASSIGNMENT((#72));
#35=ADVANCED_FACE('0:48',(#73),#74,.T.);
#36=PRESENTATION_STYLE_ASSIGNMENT((#75));
#37=MANIFOLD_SOLID_BREP('1',#76);
#38=PRESENTATION_STYLE_ASSIGNMENT((#77));
#39=ADVANCED_FACE('0:42',(#78),#79,.F.);
#40=PRESENTATION_STYLE_ASSIGNMENT((#80));
#41=ADVANCED_FACE('0:51',(#81),#82,.T.);
#42=PRESENTATION_STYLE_ASSIGNMENT((#83));
#43=ADVANCED_FACE('0:27',(#84),#85,.T.);
#44=PRESENTATION_STYLE_ASSIGNMENT((#86));
#45=ADVANCED_FACE('0:45',(#87),#88,.F.);
#46=PRESENTATION_STYLE_ASSIGNMENT((#89));
#47=ADVANCED_FACE('0:24',(#90),#91,.T.);
#48=PRESENTATION_STYLE_ASSIGNMENT((#92));
#49=ADVANCED_FACE('0:36',(#93),#94,.F.);
#50=PRESENTATION_STYLE_ASSIGNMENT((#95));
#51=ADVANCED_FACE('0:33',(#96),#97,.F.);
#52=PRESENTATION_STYLE_ASSIGNMENT((#98));
#53=ADVANCED_FACE('0:39',(#99),#100,.F.);
#54=PRESENTATION_STYLE_ASSIGNMENT((#101));
#55=ADVANCED_FACE('0:30',(#102),#103,.T.);
#56=PRODUCT('1','1','PART-1-DESC',(#104));
#57=PRODUCT_DEFINITION('NONE','NONE',#105,#2);
#58=AXIS2_PLACEMENT_3D('',#106,#107,#108);
#61=LENGTH_MEASURE_WITH_UNIT(LENGTH_MEASURE(1.0),#109);
#64=DIMENSIONAL_EXPONENTS(1.0,0.0,0.0,0.0,0.0,0.0,0.0);
#66=DIMENSIONAL_EXPONENTS(0.0,0.0,0.0,0.0,0.0,0.0,0.0);
#72=SURFACE_STYLE_USAGE(.BOTH.,#110);
#73=FACE_OUTER_BOUND('',#111,.T.);
#74=PLANE('',#112);
#75=SURFACE_STYLE_USAGE(.BOTH.,#113);
#76=CLOSED_SHELL('',(#47,#43,#55,#51,#49,#53,#39,#45,#35,#41));
#77=SURFACE_STYLE_USAGE(.BOTH.,#114);
#78=FACE_OUTER_BOUND('',#115,.T.);
#79=PLANE('',#116);
#80=SURFACE_STYLE_USAGE(.BOTH.,#117);
#81=FACE_OUTER_BOUND('',#118,.T.);
#82=CYLINDRICAL_SURFACE('',#119,0.005);
#83=SURFACE_STYLE_USAGE(.BOTH.,#120);
#84=FACE_OUTER_BOUND('',#121,.T.);
#85=CYLINDRICAL_SURFACE('',#122,0.005);
#86=SURFACE_STYLE_USAGE(.BOTH.,#123);
#87=FACE_OUTER_BOUND('',#124,.T.);
#88=PLANE('',#125);
#89=SURFACE_STYLE_USAGE(.BOTH.,#126);
#90=FACE_OUTER_BOUND('',#127,.T.);
#91=CYLINDRICAL_SURFACE('',#128,0.005);
#92=SURFACE_STYLE_USAGE(.BOTH.,#129);
#93=FACE_OUTER_BOUND('',#130,.T.);
#94=PLANE('',#131);
#95=SURFACE_STYLE_USAGE(.BOTH.,#132);
#96=FACE_OUTER_BOUND('',#133,.T.);
#97=PLANE('',#134);
#98=SURFACE_STYLE_USAGE(.BOTH.,#135);
#99=FACE_OUTER_BOUND('',#136,.T.);
#100=PLANE('',#137);
#101=SURFACE_STYLE_USAGE(.BOTH.,#138);
#102=FACE_OUTER_BOUND('',#139,.T.);
#103=CYLINDRICAL_SURFACE('',#140,0.005);
#104=PRODUCT_CONTEXT('',#21,'mechanical');
#105=PRODUCT_DEFINITION_FORMATION_WITH_SPECIFIED_SOURCE(' ','NONE',#56,.NOT_KNOWN.);
#106=CARTESIAN_POINT('',(0.0,0.0,0.0));
#107=DIRECTION('',(0.0,0.0,1.0));
#108=DIRECTION('',(1.0,0.0,0.0));
#109= (NAMED_UNIT(#64)LENGTH_UNIT()SI_UNIT($,.METRE.));
#110=SURFACE_SIDE_STYLE('',(#142));
#111=EDGE_LOOP('',(#143,#144,#145,#146,#147,#148,#149,#150));
#112=AXIS2_PLACEMENT_3D('',#151,#152,#153);
#113=SURFACE_SIDE_STYLE('',(#154));
#114=SURFACE_SIDE_STYLE('',(#155));
#115=EDGE_LOOP('',(#156,#157,#158,#159));
#116=AXIS2_PLACEMENT_3D('',#160,#161,#162);
#117=SURFACE_SIDE_STYLE('',(#163));
#118=EDGE_LOOP('',(#164,#165,#166,#167));
#119=AXIS2_PLACEMENT_3D('',#168,#169,#170);
#120=SURFACE_SIDE_STYLE('',(#171));
#121=EDGE_LOOP('',(#172,#173,#174,#175));
#122=AXIS2_PLACEMENT_3D('',#176,#177,#178);
#123=SURFACE_SIDE_STYLE('',(#179));
#124=EDGE_LOOP('',(#180,#181,#182,#183,#184,#185,#186,#187));
#125=AXIS2_PLACEMENT_3D('',#188,#189,#190);
#126=SURFACE_SIDE_STYLE('',(#191));
#127=EDGE_LOOP('',(#192,#193,#194,#195));
#128=AXIS2_PLACEMENT_3D('',#196,#197,#198);
#129=SURFACE_SIDE_STYLE('',(#199));
#130=EDGE_LOOP('',(#200,#201,#202,#203));
#131=AXIS2_PLACEMENT_3D('',#204,#205,#206);
#132=SURFACE_SIDE_STYLE('',(#207));
#133=EDGE_LOOP('',(#208,#209,#210,#211));
#134=AXIS2_PLACEMENT_3D('',#212,#213,#214);
#135=SURFACE_SIDE_STYLE('',(#215));
#136=EDGE_LOOP('',(#216,#217,#218,#219));
#137=AXIS2_PLACEMENT_3D('',#220,#221,#222);
#138=SURFACE_SIDE_STYLE('',(#223));
#139=EDGE_LOOP('',(#224,#225,#226,#227));
#140=AXIS2_PLACEMENT_3D('',#228,#229,#230);
#142=SURFACE_STYLE_FILL_AREA(#231);
#143=ORIENTED_EDGE('',*,*,#232,.T.);
#144=ORIENTED_EDGE('',*,*,#233,.T.);
#145=ORIENTED_EDGE('',*,*,#234,.T.);
#146=ORIENTED_EDGE('',*,*,#235,.T.);
#147=ORIENTED_EDGE('',*,*,#236,.T.);
#148=ORIENTED_EDGE('',*,*,#237,.T.);
#149=ORIENTED_EDGE('',*,*,#238,.T.);
#150=ORIENTED_EDGE('',*,*,#239,.T.);
#151=CARTESIAN_POINT('',(0.0,0.004,0.0));
#152=DIRECTION('',(0.0,1.0,0.0));
#153=DIRECTION('',(0.0,-0.0,1.0));
#154=SURFACE_STYLE_FILL_AREA(#240);
#155=SURFACE_STYLE_FILL_AREA(#241);
#156=ORIENTED_EDGE('',*,*,#234,.F.);
#157=ORIENTED_EDGE('',*,*,#242,.T.);
#158=ORIENTED_EDGE('',*,*,#243,.T.);
#159=ORIENTED_EDGE('',*,*,#244,.T.);
#160=CARTESIAN_POINT('',(0.1285,0.004,-0.1145));
#161=DIRECTION('',(1.07998348698945E-016,-0.0,1.0));
#162=DIRECTION('',(1.0,0.0,-1.07998348698945E-016));
#163=SURFACE_STYLE_FILL_AREA(#245);
#164=ORIENTED_EDGE('',*,*,#239,.F.);
#165=ORIENTED_EDGE('',*,*,#246,.F.);
#166=ORIENTED_EDGE('',*,*,#247,.F.);
#167=ORIENTED_EDGE('',*,*,#248,.F.);
#168=CARTESIAN_POINT('',(0.1235,0.004,0.1095));
#169=DIRECTION('',(-0.0,1.0,0.0));
#170=DIRECTION('',(0.0,0.0,-1.0));
#171=SURFACE_STYLE_FILL_AREA(#249);
#172=ORIENTED_EDGE('',*,*,#237,.F.);
#173=ORIENTED_EDGE('',*,*,#250,.F.);
#174=ORIENTED_EDGE('',*,*,#251,.F.);
#175=ORIENTED_EDGE('',*,*,#252,.F.);
#176=CARTESIAN_POINT('',(-0.1235,0.004,0.1095));
#177=DIRECTION('',(-0.0,1.0,0.0));
#178=DIRECTION('',(0.0,0.0,-1.0));
#179=SURFACE_STYLE_FILL_AREA(#253);
#180=ORIENTED_EDGE('',*,*,#243,.F.);
#181=ORIENTED_EDGE('',*,*,#254,.T.);
#182=ORIENTED_EDGE('',*,*,#255,.F.);
#183=ORIENTED_EDGE('',*,*,#247,.T.);
#184=ORIENTED_EDGE('',*,*,#256,.F.);
#185=ORIENTED_EDGE('',*,*,#251,.T.);
#186=ORIENTED_EDGE('',*,*,#257,.F.);
#187=ORIENTED_EDGE('',*,*,#258,.T.);
#188=CARTESIAN_POINT('',(0.0,0.0,0.0));
#189=DIRECTION('',(0.0,1.0,0.0));
#190=DIRECTION('',(0.0,-0.0,1.0));
#191=SURFACE_STYLE_FILL_AREA(#259);
#192=ORIENTED_EDGE('',*,*,#235,.F.);
#193=ORIENTED_EDGE('',*,*,#244,.F.);
#194=ORIENTED_EDGE('',*,*,#258,.F.);
#195=ORIENTED_EDGE('',*,*,#260,.F.);
#196=CARTESIAN_POINT('',(-0.1235,0.004,-0.1095));
#197=DIRECTION('',(-0.0,1.0,0.0));
#198=DIRECTION('',(0.0,0.0,-1.0));
#199=SURFACE_STYLE_FILL_AREA(#261);
#200=ORIENTED_EDGE('',*,*,#238,.F.);
#201=ORIENTED_EDGE('',*,*,#252,.T.);
#202=ORIENTED_EDGE('',*,*,#256,.T.);
#203=ORIENTED_EDGE('',*,*,#246,.T.);
#204=CARTESIAN_POINT('',(0.1285,0.004,0.1145));
#205=DIRECTION('',(-1.07998348698945E-016,0.0,-1.0));
#206=DIRECTION('',(-1.0,0.0,1.07998348698945E-016));
#207=SURFACE_STYLE_FILL_AREA(#262);
#208=ORIENTED_EDGE('',*,*,#236,.F.);
#209=ORIENTED_EDGE('',*,*,#260,.T.);
#210=ORIENTED_EDGE('',*,*,#257,.T.);
#211=ORIENTED_EDGE('',*,*,#250,.T.);
#212=CARTESIAN_POINT('',(-0.1285,0.004,0.1145));
#213=DIRECTION('',(1.0,-0.0,0.0));
#214=DIRECTION('',(0.0,0.0,-1.0));
#215=SURFACE_STYLE_FILL_AREA(#263);
#216=ORIENTED_EDGE('',*,*,#255,.T.);
#217=ORIENTED_EDGE('',*,*,#264,.T.);
#218=ORIENTED_EDGE('',*,*,#232,.F.);
#219=ORIENTED_EDGE('',*,*,#248,.T.);
#220=CARTESIAN_POINT('',(0.1285,0.004,0.1145));
#221=DIRECTION('',(-1.0,0.0,0.0));
#222=DIRECTION('',(0.0,0.0,1.0));
#223=SURFACE_STYLE_FILL_AREA(#265);
#224=ORIENTED_EDGE('',*,*,#233,.F.);
#225=ORIENTED_EDGE('',*,*,#264,.F.);
#226=ORIENTED_EDGE('',*,*,#254,.F.);
#227=ORIENTED_EDGE('',*,*,#242,.F.);
#228=CARTESIAN_POINT('',(0.1235,0.004,-0.1095));
#229=DIRECTION('',(-0.0,1.0,0.0));
#230=DIRECTION('',(0.0,0.0,-1.0));
#231=FILL_AREA_STYLE('',(#266));
#232=EDGE_CURVE('',#267,#268,#269,.T.);
#233=EDGE_CURVE('',#268,#270,#271,.T.);
#234=EDGE_CURVE('',#270,#272,#273,.T.);
#235=EDGE_CURVE('',#272,#274,#275,.T.);
#236=EDGE_CURVE('',#274,#276,#277,.T.);
#237=EDGE_CURVE('',#276,#278,#279,.T.);
#238=EDGE_CURVE('',#278,#280,#281,.T.);
#239=EDGE_CURVE('',#280,#267,#282,.T.);
#240=FILL_AREA_STYLE('',(#283));
#241=FILL_AREA_STYLE('',(#284));
#242=EDGE_CURVE('',#270,#285,#286,.T.);
#243=EDGE_CURVE('',#285,#287,#288,.T.);
#244=EDGE_CURVE('',#287,#272,#289,.F.);
#245=FILL_AREA_STYLE('',(#290));
#246=EDGE_CURVE('',#291,#280,#292,.F.);
#247=EDGE_CURVE('',#293,#291,#294,.F.);
#248=EDGE_CURVE('',#267,#293,#295,.T.);
#249=FILL_AREA_STYLE('',(#296));
#250=EDGE_CURVE('',#297,#276,#298,.F.);
#251=EDGE_CURVE('',#299,#297,#300,.F.);
#252=EDGE_CURVE('',#278,#299,#301,.T.);
#253=FILL_AREA_STYLE('',(#302));
#254=EDGE_CURVE('',#285,#303,#304,.F.);
#255=EDGE_CURVE('',#293,#303,#305,.T.);
#256=EDGE_CURVE('',#299,#291,#306,.T.);
#257=EDGE_CURVE('',#307,#297,#308,.T.);
#258=EDGE_CURVE('',#307,#287,#309,.F.);
#259=FILL_AREA_STYLE('',(#310));
#260=EDGE_CURVE('',#274,#307,#311,.T.);
#261=FILL_AREA_STYLE('',(#312));
#262=FILL_AREA_STYLE('',(#313));
#263=FILL_AREA_STYLE('',(#314));
#264=EDGE_CURVE('',#303,#268,#315,.F.);
#265=FILL_AREA_STYLE('',(#316));
#266=FILL_AREA_STYLE_COLOUR('',#317);
#267=VERTEX_POINT('',#318);
#268=VERTEX_POINT('',#319);
#269=LINE('',#320,#321);
#270=VERTEX_POINT('',#322);
#271=CIRCLE('',#323,0.005);
#272=VERTEX_POINT('',#324);
#273=LINE('',#325,#326);
#274=VERTEX_POINT('',#327);
#275=CIRCLE('',#328,0.005);
#276=VERTEX_POINT('',#329);
#277=LINE('',#330,#331);
#278=VERTEX_POINT('',#332);
#279=CIRCLE('',#333,0.005);
#280=VERTEX_POINT('',#334);
#281=LINE('',#335,#336);
#282=CIRCLE('',#337,0.005);
#283=FILL_AREA_STYLE_COLOUR('',#338);
#284=FILL_AREA_STYLE_COLOUR('',#339);
#285=VERTEX_POINT('',#340);
#286=LINE('',#341,#342);
#287=VERTEX_POINT('',#343);
#288=LINE('',#344,#345);
#289=LINE('',#346,#347);
#290=FILL_AREA_STYLE_COLOUR('',#348);
#291=VERTEX_POINT('',#349);
#292=LINE('',#350,#351);
#293=VERTEX_POINT('',#352);
#294=CIRCLE('',#353,0.005);
#295=LINE('',#354,#355);
#296=FILL_AREA_STYLE_COLOUR('',#356);
#297=VERTEX_POINT('',#357);
#298=LINE('',#358,#359);
#299=VERTEX_POINT('',#360);
#300=CIRCLE('',#361,0.005);
#301=LINE('',#362,#363);
#302=FILL_AREA_STYLE_COLOUR('',#364);
#303=VERTEX_POINT('',#365);
#304=CIRCLE('',#366,0.005);
#305=LINE('',#367,#368);
#306=LINE('',#369,#370);
#307=VERTEX_POINT('',#371);
#308=LINE('',#372,#373);
#309=CIRCLE('',#374,0.005);
#310=FILL_AREA_STYLE_COLOUR('',#375);
#311=LINE('',#376,#377);
#312=FILL_AREA_STYLE_COLOUR('',#378);
#313=FILL_AREA_STYLE_COLOUR('',#379);
#314=FILL_AREA_STYLE_COLOUR('',#380);
#315=LINE('',#381,#382);
#316=FILL_AREA_STYLE_COLOUR('',#383);
#317=COLOUR_RGB('',0.882352948188782,0.882352948188782,0.882352948188782);
#318=CARTESIAN_POINT('',(0.1285,0.004,0.1095));
#319=CARTESIAN_POINT('',(0.1285,0.004,-0.1095));
#320=CARTESIAN_POINT('',(0.1285,0.004,0.1145));
#321=VECTOR('',#384,1.0);
#322=CARTESIAN_POINT('',(0.1235,0.004,-0.1145));
#323=AXIS2_PLACEMENT_3D('',#385,#386,#387);
#324=CARTESIAN_POINT('',(-0.1235,0.004,-0.1145));
#325=CARTESIAN_POINT('',(0.1285,0.004,-0.1145));
#326=VECTOR('',#388,1.0);
#327=CARTESIAN_POINT('',(-0.1285,0.004,-0.1095));
#328=AXIS2_PLACEMENT_3D('',#389,#390,#391);
#329=CARTESIAN_POINT('',(-0.1285,0.004,0.1095));
#330=CARTESIAN_POINT('',(-0.1285,0.004,0.1145));
#331=VECTOR('',#392,1.0);
#332=CARTESIAN_POINT('',(-0.1235,0.004,0.1145));
#333=AXIS2_PLACEMENT_3D('',#393,#394,#395);
#334=CARTESIAN_POINT('',(0.1235,0.004,0.1145));
#335=CARTESIAN_POINT('',(0.1285,0.004,0.1145));
#336=VECTOR('',#396,1.0);
#337=AXIS2_PLACEMENT_3D('',#397,#398,#399);
#338=COLOUR_RGB('',0.882352948188782,0.882352948188782,0.882352948188782);
#339=COLOUR_RGB('',0.882352948188782,0.882352948188782,0.882352948188782);
#340=CARTESIAN_POINT('',(0.1235,0.0,-0.1145));
#341=CARTESIAN_POINT('',(0.1235,0.004,-0.1145));
#342=VECTOR('',#400,1.0);
#343=CARTESIAN_POINT('',(-0.1235,0.0,-0.1145));
#344=CARTESIAN_POINT('',(0.1285,0.0,-0.1145));
#345=VECTOR('',#401,1.0);
#346=CARTESIAN_POINT('',(-0.1235,0.004,-0.1145));
#347=VECTOR('',#402,1.0);
#348=COLOUR_RGB('',0.882352948188782,0.882352948188782,0.882352948188782);
#349=CARTESIAN_POINT('',(0.1235,0.0,0.1145));
#350=CARTESIAN_POINT('',(0.1235,0.004,0.1145));
#351=VECTOR('',#403,1.0);
#352=CARTESIAN_POINT('',(0.1285,0.0,0.1095));
#353=AXIS2_PLACEMENT_3D('',#404,#405,#406);
#354=CARTESIAN_POINT('',(0.1285,0.004,0.1095));
#355=VECTOR('',#407,1.0);
#356=COLOUR_RGB('',0.882352948188782,0.882352948188782,0.882352948188782);
#357=CARTESIAN_POINT('',(-0.1285,0.0,0.1095));
#358=CARTESIAN_POINT('',(-0.1285,0.004,0.1095));
#359=VECTOR('',#408,1.0);
#360=CARTESIAN_POINT('',(-0.1235,0.0,0.1145));
#361=AXIS2_PLACEMENT_3D('',#409,#410,#411);
#362=CARTESIAN_POINT('',(-0.1235,0.004,0.1145));
#363=VECTOR('',#412,1.0);
#364=COLOUR_RGB('',0.882352948188782,0.882352948188782,0.882352948188782);
#365=CARTESIAN_POINT('',(0.1285,0.0,-0.1095));
#366=AXIS2_PLACEMENT_3D('',#413,#414,#415);
#367=CARTESIAN_POINT('',(0.1285,0.0,0.1145));
#368=VECTOR('',#416,1.0);
#369=CARTESIAN_POINT('',(0.1285,0.0,0.1145));
#370=VECTOR('',#417,1.0);
#371=CARTESIAN_POINT('',(-0.1285,0.0,-0.1095));
#372=CARTESIAN_POINT('',(-0.1285,0.0,0.1145));
#373=VECTOR('',#418,1.0);
#374=AXIS2_PLACEMENT_3D('',#419,#420,#421);
#375=COLOUR_RGB('',0.882352948188782,0.882352948188782,0.882352948188782);
#376=CARTESIAN_POINT('',(-0.1285,0.004,-0.1095));
#377=VECTOR('',#422,1.0);
#378=COLOUR_RGB('',0.882352948188782,0.882352948188782,0.882352948188782);
#379=COLOUR_RGB('',0.882352948188782,0.882352948188782,0.882352948188782);
#380=COLOUR_RGB('',0.882352948188782,0.882352948188782,0.882352948188782);
#381=CARTESIAN_POINT('',(0.1285,0.004,-0.1095));
#382=VECTOR('',#423,1.0);
#383=COLOUR_RGB('',0.882352948188782,0.882352948188782,0.882352948188782);
#384=DIRECTION('',(0.0,0.0,-1.0));
#385=CARTESIAN_POINT('',(0.1235,0.004,-0.1095));
#386=DIRECTION('',(0.0,1.0,0.0));
#387=DIRECTION('',(0.0,-0.0,1.0));
#388=DIRECTION('',(-1.0,0.0,1.07998348698945E-016));
#389=CARTESIAN_POINT('',(-0.1235,0.004,-0.1095));
#390=DIRECTION('',(0.0,1.0,0.0));
#391=DIRECTION('',(0.0,-0.0,1.0));
#392=DIRECTION('',(-0.0,-0.0,1.0));
#393=CARTESIAN_POINT('',(-0.1235,0.004,0.1095));
#394=DIRECTION('',(0.0,1.0,0.0));
#395=DIRECTION('',(0.0,-0.0,1.0));
#396=DIRECTION('',(1.0,-0.0,-1.07998348698945E-016));
#397=CARTESIAN_POINT('',(0.1235,0.004,0.1095));
#398=DIRECTION('',(0.0,1.0,0.0));
#399=DIRECTION('',(0.0,-0.0,1.0));
#400=DIRECTION('',(0.0,-1.0,0.0));
#401=DIRECTION('',(-1.0,0.0,1.07998348698945E-016));
#402=DIRECTION('',(0.0,-1.0,0.0));
#403=DIRECTION('',(0.0,-1.0,0.0));
#404=CARTESIAN_POINT('',(0.1235,0.0,0.1095));
#405=DIRECTION('',(0.0,1.0,0.0));
#406=DIRECTION('',(0.0,-0.0,1.0));
#407=DIRECTION('',(0.0,-1.0,0.0));
#408=DIRECTION('',(-0.0,-1.0,0.0));
#409=CARTESIAN_POINT('',(-0.1235,0.0,0.1095));
#410=DIRECTION('',(0.0,1.0,0.0));
#411=DIRECTION('',(0.0,-0.0,1.0));
#412=DIRECTION('',(0.0,-1.0,0.0));
#413=CARTESIAN_POINT('',(0.1235,0.0,-0.1095));
#414=DIRECTION('',(0.0,1.0,0.0));
#415=DIRECTION('',(0.0,-0.0,1.0));
#416=DIRECTION('',(0.0,0.0,-1.0));
#417=DIRECTION('',(1.0,-0.0,-1.07998348698945E-016));
#418=DIRECTION('',(-0.0,-0.0,1.0));
#419=CARTESIAN_POINT('',(-0.1235,0.0,-0.1095));
#420=DIRECTION('',(0.0,1.0,0.0));
#421=DIRECTION('',(0.0,-0.0,1.0));
#422=DIRECTION('',(-0.0,-1.0,0.0));
#423=DIRECTION('',(0.0,-1.0,0.0));
#424=PRESENTATION_LAYER_ASSIGNMENT('Layer0','',(#37));
ENDSEC;
END-ISO-10303-21;
