ISO-10303-21;
HEADER;
FILE_DESCRIPTION (( 'STEP AP214' ),
    '1' );
FILE_NAME ('1139-Z1P-A.STEP',
    '2013-05-15T14:54:14',
    ( '3DAssist' ),
    ( '' ),
    'SwSTEP 2.0',
    'SolidWorks 2013',
    '' );
FILE_SCHEMA (( 'AUTOMOTIVE_DESIGN' ));
ENDSEC;

DATA;
#1 = PRODUCT_DEFINITION_CONTEXT ( 'detailed design', #50, 'design' ) ;
#2 = DIRECTION ( 'NONE',  ( 0.0000000000000000000, 0.0000000000000000000, 1.000000000000000000 ) ) ;
#3 = PRODUCT ( '1139-Z1P-A', '1139-Z1P-A', '', ( #49 ) ) ;
#4 = EDGE_LOOP ( 'NONE', ( #40 ) ) ;
#5 = ORIENTED_EDGE ( 'NONE', *, *, #103, .T. ) ;
#6 = FACE_OUTER_BOUND ( 'NONE', #101, .T. ) ;
#7 = ADVANCED_BREP_SHAPE_REPRESENTATION ( '1139-Z1P-A', ( #111, #134 ), #118 ) ;
#8 = DIRECTION ( 'NONE',  ( 0.0000000000000000000, 1.000000000000000000, 0.0000000000000000000 ) ) ;
#9 = UNCERTAINTY_MEASURE_WITH_UNIT (LENGTH_MEASURE( 1.000000000000000100E-005 ), #57, 'distance_accuracy_value', 'NONE');
#10 = DIRECTION ( 'NONE',  ( -0.0000000000000000000, -1.000000000000000000, -0.0000000000000000000 ) ) ;
#11 = PRODUCT_DEFINITION_SHAPE ( 'NONE', 'NONE',  #133 ) ;
#12 = CARTESIAN_POINT ( 'NONE',  ( 0.0000000000000000000, 8.000000000000000000, 0.0000000000000000000 ) ) ;
#13 = DIRECTION ( 'NONE',  ( 0.0000000000000000000, -0.0000000000000000000, 1.000000000000000000 ) ) ;
#14 = CARTESIAN_POINT ( 'NONE',  ( 0.0000000000000000000, -8.000000000000000000, 0.0000000000000000000 ) ) ;
#15 = DIRECTION ( 'NONE',  ( 0.0000000000000000000, 0.0000000000000000000, -1.000000000000000000 ) ) ;
#16 = CARTESIAN_POINT ( 'NONE',  ( 0.0000000000000000000, -8.000000000000000000, 0.0000000000000000000 ) ) ;
#17 = DIRECTION ( 'NONE',  ( -0.0000000000000000000, -1.000000000000000000, -0.0000000000000000000 ) ) ;
#18 = CARTESIAN_POINT ( 'NONE',  ( 0.0000000000000000000, 8.000000000000000000, 0.0000000000000000000 ) ) ;
#19 = CARTESIAN_POINT ( 'NONE',  ( 0.0000000000000000000, 8.000000000000000000, 0.0000000000000000000 ) ) ;
#20 = DIRECTION ( 'NONE',  ( 0.0000000000000000000, 1.000000000000000000, 0.0000000000000000000 ) ) ;
#21 = PRESENTATION_STYLE_ASSIGNMENT (( #67 ) ) ;
#22 = COLOUR_RGB ( '',1.000000000000000000, 1.000000000000000000, 1.000000000000000000 ) ;
#23 = PLANE ( 'NONE',  #124 ) ;
#24 = CARTESIAN_POINT ( 'NONE',  ( 0.0000000000000000000, 0.0000000000000000000, 0.0000000000000000000 ) ) ;
#25 = DIRECTION ( 'NONE',  ( 0.0000000000000000000, -0.0000000000000000000, 1.000000000000000000 ) ) ;
#26 = CARTESIAN_POINT ( 'NONE',  ( 0.0000000000000000000, -8.000000000000000000, 1.600000000000000100 ) ) ;
#27 = VERTEX_POINT ( 'NONE', #77 ) ;
#28 = DIRECTION ( 'NONE',  ( 0.0000000000000000000, 1.000000000000000000, 0.0000000000000000000 ) ) ;
#29 = VERTEX_POINT ( 'NONE', #80 ) ;
#30 = VERTEX_POINT ( 'NONE', #26 ) ;
#31 = SHAPE_DEFINITION_REPRESENTATION ( #11, #7 ) ;
#32 = SURFACE_STYLE_FILL_AREA ( #64 ) ;
#33 = DIRECTION ( 'NONE',  ( 0.0000000000000000000, 1.000000000000000000, 0.0000000000000000000 ) ) ;
#34 = ADVANCED_FACE ( 'NONE', ( #6, #94 ), #90, .F. ) ;
#35 = ADVANCED_FACE ( 'NONE', ( #92, #87 ), #85, .F. ) ;
#36 = ADVANCED_FACE ( 'NONE', ( #91, #84 ), #82, .T. ) ;
#37 = DIRECTION ( 'NONE',  ( 0.0000000000000000000, 0.0000000000000000000, 1.000000000000000000 ) ) ;
#38 = ADVANCED_FACE ( 'NONE', ( #86, #74 ), #23, .T. ) ;
#39 = UNCERTAINTY_MEASURE_WITH_UNIT (LENGTH_MEASURE( 1.000000000000000100E-005 ), #68, 'distance_accuracy_value', 'NONE');
#40 = ORIENTED_EDGE ( 'NONE', *, *, #108, .F. ) ;
#41 = CARTESIAN_POINT ( 'NONE',  ( 0.0000000000000000000, -8.000000000000000000, 0.0000000000000000000 ) ) ;
#42 = PRESENTATION_STYLE_ASSIGNMENT (( #76 ) ) ;
#43 = DIRECTION ( 'NONE',  ( 0.0000000000000000000, 0.0000000000000000000, 1.000000000000000000 ) ) ;
#44 = DIRECTION ( 'NONE',  ( 0.0000000000000000000, 1.000000000000000000, 0.0000000000000000000 ) ) ;
#45 = CARTESIAN_POINT ( 'NONE',  ( 0.0000000000000000000, 8.000000000000000000, 0.0000000000000000000 ) ) ;
#46 = DIRECTION ( 'NONE',  ( 0.0000000000000000000, 0.0000000000000000000, 1.000000000000000000 ) ) ;
#47 = FILL_AREA_STYLE_COLOUR ( '', #73 ) ;
#48 = APPLICATION_PROTOCOL_DEFINITION ( 'draft international standard', 'automotive_design', 1998, #50 ) ;
#49 = PRODUCT_CONTEXT ( 'NONE', #61, 'mechanical' ) ;
#50 = APPLICATION_CONTEXT ( 'automotive_design' ) ;
#51 = SURFACE_STYLE_FILL_AREA ( #65 ) ;
#52 = DIRECTION ( 'NONE',  ( 1.000000000000000000, 0.0000000000000000000, 0.0000000000000000000 ) ) ;
#53 = CIRCLE ( 'NONE', #100, 2.500000000000000000 ) ;
#54 = CIRCLE ( 'NONE', #123, 1.600000000000000100 ) ;
#55 = FILL_AREA_STYLE_COLOUR ( '', #22 ) ;
#56 = UNCERTAINTY_MEASURE_WITH_UNIT (LENGTH_MEASURE( 1.000000000000000100E-005 ), #78, 'distance_accuracy_value', 'NONE');
#57 =( LENGTH_UNIT ( ) NAMED_UNIT ( * ) SI_UNIT ( .MILLI., .METRE. ) );
#58 =( NAMED_UNIT ( * ) PLANE_ANGLE_UNIT ( ) SI_UNIT ( $, .RADIAN. ) );
#59 =( NAMED_UNIT ( * ) SI_UNIT ( $, .STERADIAN. ) SOLID_ANGLE_UNIT ( ) );
#60 = APPLICATION_PROTOCOL_DEFINITION ( 'draft international standard', 'automotive_design', 1998, #61 ) ;
#61 = APPLICATION_CONTEXT ( 'automotive_design' ) ;
#62 = ORIENTED_EDGE ( 'NONE', *, *, #109, .F. ) ;
#63 = CIRCLE ( 'NONE', #128, 1.600000000000000100 ) ;
#64 = FILL_AREA_STYLE ('',( #55 ) ) ;
#65 = FILL_AREA_STYLE ('',( #47 ) ) ;
#66 = SURFACE_SIDE_STYLE ('',( #32 ) ) ;
#67 = SURFACE_STYLE_USAGE ( .BOTH. , #66 ) ;
#68 =( LENGTH_UNIT ( ) NAMED_UNIT ( * ) SI_UNIT ( .MILLI., .METRE. ) );
#69 =( NAMED_UNIT ( * ) PLANE_ANGLE_UNIT ( ) SI_UNIT ( $, .RADIAN. ) );
#70 = CARTESIAN_POINT ( 'NONE',  ( 0.0000000000000000000, 8.000000000000000000, 0.0000000000000000000 ) ) ;
#71 =( NAMED_UNIT ( * ) SI_UNIT ( $, .STERADIAN. ) SOLID_ANGLE_UNIT ( ) );
#72 = DIRECTION ( 'NONE',  ( 0.0000000000000000000, 0.0000000000000000000, 1.000000000000000000 ) ) ;
#73 = COLOUR_RGB ( '',1.000000000000000000, 1.000000000000000000, 1.000000000000000000 ) ;
#74 = FACE_BOUND ( 'NONE', #105, .T. ) ;
#75 = SURFACE_SIDE_STYLE ('',( #51 ) ) ;
#76 = SURFACE_STYLE_USAGE ( .BOTH. , #75 ) ;
#77 = CARTESIAN_POINT ( 'NONE',  ( 0.0000000000000000000, 8.000000000000000000, 2.500000000000000000 ) ) ;
#78 =( LENGTH_UNIT ( ) NAMED_UNIT ( * ) SI_UNIT ( .MILLI., .METRE. ) );
#79 = CARTESIAN_POINT ( 'NONE',  ( 0.0000000000000000000, -8.000000000000000000, 2.500000000000000000 ) ) ;
#80 = CARTESIAN_POINT ( 'NONE',  ( 0.0000000000000000000, 8.000000000000000000, 1.600000000000000100 ) ) ;
#81 = DIRECTION ( 'NONE',  ( 0.0000000000000000000, 1.000000000000000000, 0.0000000000000000000 ) ) ;
#82 = CYLINDRICAL_SURFACE ( 'NONE', #116, 2.500000000000000000 ) ;
#83 = CIRCLE ( 'NONE', #114, 2.500000000000000000 ) ;
#84 = FACE_OUTER_BOUND ( 'NONE', #102, .T. ) ;
#85 = CYLINDRICAL_SURFACE ( 'NONE', #117, 1.600000000000000100 ) ;
#86 = FACE_OUTER_BOUND ( 'NONE', #97, .T. ) ;
#87 = FACE_OUTER_BOUND ( 'NONE', #4, .T. ) ;
#88 =( NAMED_UNIT ( * ) PLANE_ANGLE_UNIT ( ) SI_UNIT ( $, .RADIAN. ) );
#89 = VERTEX_POINT ( 'NONE', #79 ) ;
#90 = PLANE ( 'NONE',  #113 ) ;
#91 = FACE_OUTER_BOUND ( 'NONE', #112, .T. ) ;
#92 = FACE_OUTER_BOUND ( 'NONE', #130, .T. ) ;
#93 = ORIENTED_EDGE ( 'NONE', *, *, #109, .T. ) ;
#94 = FACE_BOUND ( 'NONE', #98, .T. ) ;
#95 = DIRECTION ( 'NONE',  ( 0.0000000000000000000, 0.0000000000000000000, -1.000000000000000000 ) ) ;
#96 = ORIENTED_EDGE ( 'NONE', *, *, #108, .T. ) ;
#97 = EDGE_LOOP ( 'NONE', ( #129 ) ) ;
#98 = EDGE_LOOP ( 'NONE', ( #96 ) ) ;
#99 = ORIENTED_EDGE ( 'NONE', *, *, #110, .F. ) ;
#100 = AXIS2_PLACEMENT_3D ( 'NONE', #70, #28, #2 ) ;
#101 = EDGE_LOOP ( 'NONE', ( #125 ) ) ;
#102 = EDGE_LOOP ( 'NONE', ( #5 ) ) ;
#103 = EDGE_CURVE ( 'NONE', #89, #89, #83, .T. ) ;
#104 = PRESENTATION_LAYER_ASSIGNMENT (  '', '', ( #127 ) ) ;
#105 = EDGE_LOOP ( 'NONE', ( #62 ) ) ;
#106 = MECHANICAL_DESIGN_GEOMETRIC_PRESENTATION_REPRESENTATION (  '', ( #127 ), #107 ) ;
#107 =( GEOMETRIC_REPRESENTATION_CONTEXT ( 3 ) GLOBAL_UNCERTAINTY_ASSIGNED_CONTEXT ( ( #39 ) ) GLOBAL_UNIT_ASSIGNED_CONTEXT ( ( #68, #69, #71 ) ) REPRESENTATION_CONTEXT ( 'NONE', 'WORKASPACE' ) );
#108 = EDGE_CURVE ( 'NONE', #30, #30, #63, .T. ) ;
#109 = EDGE_CURVE ( 'NONE', #29, #29, #54, .T. ) ;
#110 = EDGE_CURVE ( 'NONE', #27, #27, #53, .T. ) ;
#111 = MANIFOLD_SOLID_BREP ( 'Boss-Extrude1', #115 ) ;
#112 = EDGE_LOOP ( 'NONE', ( #99 ) ) ;
#113 = AXIS2_PLACEMENT_3D ( 'NONE', #16, #8, #13 ) ;
#114 = AXIS2_PLACEMENT_3D ( 'NONE', #14, #33, #37 ) ;
#115 = CLOSED_SHELL ( 'NONE', ( #38, #34, #36, #35 ) ) ;
#116 = AXIS2_PLACEMENT_3D ( 'NONE', #19, #10, #15 ) ;
#117 = AXIS2_PLACEMENT_3D ( 'NONE', #12, #17, #95 ) ;
#118 =( GEOMETRIC_REPRESENTATION_CONTEXT ( 3 ) GLOBAL_UNCERTAINTY_ASSIGNED_CONTEXT ( ( #9 ) ) GLOBAL_UNIT_ASSIGNED_CONTEXT ( ( #57, #58, #59 ) ) REPRESENTATION_CONTEXT ( 'NONE', 'WORKASPACE' ) );
#119 =( GEOMETRIC_REPRESENTATION_CONTEXT ( 3 ) GLOBAL_UNCERTAINTY_ASSIGNED_CONTEXT ( ( #56 ) ) GLOBAL_UNIT_ASSIGNED_CONTEXT ( ( #78, #88, #126 ) ) REPRESENTATION_CONTEXT ( 'NONE', 'WORKASPACE' ) );
#120 = MECHANICAL_DESIGN_GEOMETRIC_PRESENTATION_REPRESENTATION (  '', ( #122 ), #119 ) ;
#121 = PRESENTATION_LAYER_ASSIGNMENT (  '', '', ( #122 ) ) ;
#122 = STYLED_ITEM ( 'NONE', ( #42 ), #111 ) ;
#123 = AXIS2_PLACEMENT_3D ( 'NONE', #45, #81, #46 ) ;
#124 = AXIS2_PLACEMENT_3D ( 'NONE', #18, #20, #25 ) ;
#125 = ORIENTED_EDGE ( 'NONE', *, *, #103, .F. ) ;
#126 =( NAMED_UNIT ( * ) SI_UNIT ( $, .STERADIAN. ) SOLID_ANGLE_UNIT ( ) );
#127 = STYLED_ITEM ( 'NONE', ( #21 ), #7 ) ;
#128 = AXIS2_PLACEMENT_3D ( 'NONE', #41, #44, #43 ) ;
#129 = ORIENTED_EDGE ( 'NONE', *, *, #110, .T. ) ;
#130 = EDGE_LOOP ( 'NONE', ( #93 ) ) ;
#131 = PRODUCT_RELATED_PRODUCT_CATEGORY ( 'part', '', ( #3 ) ) ;
#132 = PRODUCT_DEFINITION_FORMATION_WITH_SPECIFIED_SOURCE ( 'ANY', '', #3, .NOT_KNOWN. ) ;
#133 = PRODUCT_DEFINITION ( 'UNKNOWN', '', #132, #1 ) ;
#134 = AXIS2_PLACEMENT_3D ( 'NONE', #24, #72, #52 ) ;
ENDSEC;
END-ISO-10303-21;
