ISO-10303-21;
HEADER;
FILE_DESCRIPTION (( 'STEP AP214' ),
    '1' );
FILE_NAME ('1136-Z1P-A.STEP',
    '2013-05-15T14:53:00',
    ( '3DAssist' ),
    ( '' ),
    'SwSTEP 2.0',
    'SolidWorks 2013',
    '' );
FILE_SCHEMA (( 'AUTOMOTIVE_DESIGN' ));
ENDSEC;

DATA;
#1 = EDGE_LOOP ( 'NONE', ( #36 ) ) ;
#2 = FACE_BOUND ( 'NONE', #104, .T. ) ;
#3 = EDGE_LOOP ( 'NONE', ( #112 ) ) ;
#4 = SURFACE_STYLE_FILL_AREA ( #42 ) ;
#5 = FACE_OUTER_BOUND ( 'NONE', #116, .T. ) ;
#6 = CIRCLE ( 'NONE', #49, 4.200000000000000200 ) ;
#7 = CIRCLE ( 'NONE', #35, 4.200000000000000200 ) ;
#8 = UNCERTAINTY_MEASURE_WITH_UNIT (LENGTH_MEASURE( 1.000000000000000100E-005 ), #95, 'distance_accuracy_value', 'NONE');
#9 = CLOSED_SHELL ( 'NONE', ( #110, #109, #106, #108 ) ) ;
#10 = ORIENTED_EDGE ( 'NONE', *, *, #38, .F. ) ;
#11 = SURFACE_STYLE_USAGE ( .BOTH. , #37 ) ;
#12 =( LENGTH_UNIT ( ) NAMED_UNIT ( * ) SI_UNIT ( .MILLI., .METRE. ) );
#13 =( NAMED_UNIT ( * ) PLANE_ANGLE_UNIT ( ) SI_UNIT ( $, .RADIAN. ) );
#14 =( NAMED_UNIT ( * ) SI_UNIT ( $, .STERADIAN. ) SOLID_ANGLE_UNIT ( ) );
#15 = DIRECTION ( 'NONE',  ( 0.0000000000000000000, 0.0000000000000000000, 1.000000000000000000 ) ) ;
#16 = DIRECTION ( 'NONE',  ( 1.000000000000000000, 0.0000000000000000000, 0.0000000000000000000 ) ) ;
#17 = PRODUCT_CONTEXT ( 'NONE', #51, 'mechanical' ) ;
#18 = APPLICATION_CONTEXT ( 'automotive_design' ) ;
#19 = APPLICATION_PROTOCOL_DEFINITION ( 'draft international standard', 'automotive_design', 1998, #18 ) ;
#20 = PRODUCT_RELATED_PRODUCT_CATEGORY ( 'part', '', ( #103 ) ) ;
#21 = PRODUCT_DEFINITION_FORMATION_WITH_SPECIFIED_SOURCE ( 'ANY', '', #103, .NOT_KNOWN. ) ;
#22 = MANIFOLD_SOLID_BREP ( 'Base-Revolve', #9 ) ;
#23 = PRODUCT_DEFINITION ( 'UNKNOWN', '', #21, #120 ) ;
#24 = AXIS2_PLACEMENT_3D ( 'NONE', #92, #15, #16 ) ;
#25 = FACE_OUTER_BOUND ( 'NONE', #119, .T. ) ;
#26 =( GEOMETRIC_REPRESENTATION_CONTEXT ( 3 ) GLOBAL_UNCERTAINTY_ASSIGNED_CONTEXT ( ( #114 ) ) GLOBAL_UNIT_ASSIGNED_CONTEXT ( ( #12, #13, #14 ) ) REPRESENTATION_CONTEXT ( 'NONE', 'WORKASPACE' ) );
#27 = MECHANICAL_DESIGN_GEOMETRIC_PRESENTATION_REPRESENTATION (  '', ( #29 ), #26 ) ;
#28 = PRESENTATION_LAYER_ASSIGNMENT (  '', '', ( #29 ) ) ;
#29 = STYLED_ITEM ( 'NONE', ( #131 ), #130 ) ;
#30 = AXIS2_PLACEMENT_3D ( 'NONE', #87, #88, #86 ) ;
#31 =( GEOMETRIC_REPRESENTATION_CONTEXT ( 3 ) GLOBAL_UNCERTAINTY_ASSIGNED_CONTEXT ( ( #8 ) ) GLOBAL_UNIT_ASSIGNED_CONTEXT ( ( #95, #96, #97 ) ) REPRESENTATION_CONTEXT ( 'NONE', 'WORKASPACE' ) );
#32 = AXIS2_PLACEMENT_3D ( 'NONE', #83, #81, #84 ) ;
#33 = AXIS2_PLACEMENT_3D ( 'NONE', #78, #68, #82 ) ;
#34 = AXIS2_PLACEMENT_3D ( 'NONE', #75, #63, #55 ) ;
#35 = AXIS2_PLACEMENT_3D ( 'NONE', #73, #70, #72 ) ;
#36 = ORIENTED_EDGE ( 'NONE', *, *, #39, .T. ) ;
#37 = SURFACE_SIDE_STYLE ('',( #4 ) ) ;
#38 = EDGE_CURVE ( 'NONE', #76, #76, #125, .T. ) ;
#39 = EDGE_CURVE ( 'NONE', #127, #127, #6, .T. ) ;
#40 = EDGE_CURVE ( 'NONE', #107, #107, #7, .T. ) ;
#41 = EDGE_CURVE ( 'NONE', #128, #128, #132, .T. ) ;
#42 = FILL_AREA_STYLE ('',( #94 ) ) ;
#43 = STYLED_ITEM ( 'NONE', ( #124 ), #22 ) ;
#44 = PRESENTATION_LAYER_ASSIGNMENT (  '', '', ( #43 ) ) ;
#45 = MECHANICAL_DESIGN_GEOMETRIC_PRESENTATION_REPRESENTATION (  '', ( #43 ), #46 ) ;
#46 =( GEOMETRIC_REPRESENTATION_CONTEXT ( 3 ) GLOBAL_UNCERTAINTY_ASSIGNED_CONTEXT ( ( #121 ) ) GLOBAL_UNIT_ASSIGNED_CONTEXT ( ( #60, #61, #59 ) ) REPRESENTATION_CONTEXT ( 'NONE', 'WORKASPACE' ) );
#47 = AXIS2_PLACEMENT_3D ( 'NONE', #99, #62, #64 ) ;
#48 = FACE_OUTER_BOUND ( 'NONE', #3, .T. ) ;
#49 = AXIS2_PLACEMENT_3D ( 'NONE', #69, #67, #71 ) ;
#50 = APPLICATION_PROTOCOL_DEFINITION ( 'draft international standard', 'automotive_design', 1998, #51 ) ;
#51 = APPLICATION_CONTEXT ( 'automotive_design' ) ;
#52 = FILL_AREA_STYLE_COLOUR ( '', #117 ) ;
#53 = AXIS2_PLACEMENT_3D ( 'NONE', #77, #79, #74 ) ;
#54 = FILL_AREA_STYLE ('',( #52 ) ) ;
#55 = DIRECTION ( 'NONE',  ( 0.0000000000000000000, 0.0000000000000000000, 1.000000000000000000 ) ) ;
#56 = SURFACE_SIDE_STYLE ('',( #65 ) ) ;
#57 = SURFACE_STYLE_USAGE ( .BOTH. , #56 ) ;
#58 = SHAPE_DEFINITION_REPRESENTATION ( #129, #130 ) ;
#59 =( NAMED_UNIT ( * ) SI_UNIT ( $, .STERADIAN. ) SOLID_ANGLE_UNIT ( ) );
#60 =( LENGTH_UNIT ( ) NAMED_UNIT ( * ) SI_UNIT ( .MILLI., .METRE. ) );
#61 =( NAMED_UNIT ( * ) PLANE_ANGLE_UNIT ( ) SI_UNIT ( $, .RADIAN. ) );
#62 = DIRECTION ( 'NONE',  ( -1.000000000000000000, -0.0000000000000000000, -0.0000000000000000000 ) ) ;
#63 = DIRECTION ( 'NONE',  ( -1.000000000000000000, -0.0000000000000000000, -0.0000000000000000000 ) ) ;
#64 = DIRECTION ( 'NONE',  ( 0.0000000000000000000, 0.0000000000000000000, 1.000000000000000000 ) ) ;
#65 = SURFACE_STYLE_FILL_AREA ( #54 ) ;
#66 = FACE_OUTER_BOUND ( 'NONE', #111, .T. ) ;
#67 = DIRECTION ( 'NONE',  ( -1.000000000000000000, -0.0000000000000000000, -0.0000000000000000000 ) ) ;
#68 = DIRECTION ( 'NONE',  ( 1.000000000000000000, 0.0000000000000000000, 0.0000000000000000000 ) ) ;
#69 = CARTESIAN_POINT ( 'NONE',  ( 0.0000000000000000000, 0.0000000000000000000, 0.0000000000000000000 ) ) ;
#70 = DIRECTION ( 'NONE',  ( -1.000000000000000000, -0.0000000000000000000, -0.0000000000000000000 ) ) ;
#71 = DIRECTION ( 'NONE',  ( 0.0000000000000000000, 0.0000000000000000000, 1.000000000000000000 ) ) ;
#72 = DIRECTION ( 'NONE',  ( 0.0000000000000000000, 0.0000000000000000000, 1.000000000000000000 ) ) ;
#73 = CARTESIAN_POINT ( 'NONE',  ( -1.599999999999997200, 0.0000000000000000000, 0.0000000000000000000 ) ) ;
#74 = DIRECTION ( 'NONE',  ( 0.0000000000000000000, 0.0000000000000000000, 1.000000000000000000 ) ) ;
#75 = CARTESIAN_POINT ( 'NONE',  ( -34.92499999999994700, 0.0000000000000000000, 0.0000000000000000000 ) ) ;
#76 = VERTEX_POINT ( 'NONE', #91 ) ;
#77 = CARTESIAN_POINT ( 'NONE',  ( 0.0000000000000000000, 0.0000000000000000000, 0.0000000000000000000 ) ) ;
#78 = CARTESIAN_POINT ( 'NONE',  ( -1.599999999999998500, 8.000000000000000000, 0.0000000000000000000 ) ) ;
#79 = DIRECTION ( 'NONE',  ( -1.000000000000000000, -0.0000000000000000000, -0.0000000000000000000 ) ) ;
#80 = PLANE ( 'NONE',  #33 ) ;
#81 = DIRECTION ( 'NONE',  ( -1.000000000000000000, 0.0000000000000000000, -0.0000000000000000000 ) ) ;
#82 = DIRECTION ( 'NONE',  ( 0.0000000000000000000, 0.0000000000000000000, -1.000000000000000000 ) ) ;
#83 = CARTESIAN_POINT ( 'NONE',  ( 0.0000000000000000000, 4.200000000000000200, 0.0000000000000000000 ) ) ;
#84 = DIRECTION ( 'NONE',  ( -0.0000000000000000000, 0.0000000000000000000, 1.000000000000000000 ) ) ;
#85 = PLANE ( 'NONE',  #32 ) ;
#86 = DIRECTION ( 'NONE',  ( 0.0000000000000000000, 0.0000000000000000000, 1.000000000000000000 ) ) ;
#87 = CARTESIAN_POINT ( 'NONE',  ( -34.92499999999994700, 0.0000000000000000000, 0.0000000000000000000 ) ) ;
#88 = DIRECTION ( 'NONE',  ( -1.000000000000000000, -0.0000000000000000000, -0.0000000000000000000 ) ) ;
#89 = CARTESIAN_POINT ( 'NONE',  ( 0.0000000000000000000, 0.0000000000000000000, 8.000000000000000000 ) ) ;
#90 = CARTESIAN_POINT ( 'NONE',  ( -1.599999999999997200, 0.0000000000000000000, 4.200000000000000200 ) ) ;
#91 = CARTESIAN_POINT ( 'NONE',  ( -1.599999999999997200, 0.0000000000000000000, 8.000000000000000000 ) ) ;
#92 = CARTESIAN_POINT ( 'NONE',  ( 0.0000000000000000000, 0.0000000000000000000, 0.0000000000000000000 ) ) ;
#93 = CARTESIAN_POINT ( 'NONE',  ( 0.0000000000000000000, 0.0000000000000000000, 4.200000000000000200 ) ) ;
#94 = FILL_AREA_STYLE_COLOUR ( '', #115 ) ;
#95 =( LENGTH_UNIT ( ) NAMED_UNIT ( * ) SI_UNIT ( .MILLI., .METRE. ) );
#96 =( NAMED_UNIT ( * ) PLANE_ANGLE_UNIT ( ) SI_UNIT ( $, .RADIAN. ) );
#97 =( NAMED_UNIT ( * ) SI_UNIT ( $, .STERADIAN. ) SOLID_ANGLE_UNIT ( ) );
#98 = EDGE_LOOP ( 'NONE', ( #134 ) ) ;
#99 = CARTESIAN_POINT ( 'NONE',  ( -1.599999999999997200, 0.0000000000000000000, 0.0000000000000000000 ) ) ;
#100 = ORIENTED_EDGE ( 'NONE', *, *, #39, .F. ) ;
#101 = EDGE_LOOP ( 'NONE', ( #100 ) ) ;
#102 = ORIENTED_EDGE ( 'NONE', *, *, #41, .F. ) ;
#103 = PRODUCT ( '1136-Z1P-A', '1136-Z1P-A', '', ( #17 ) ) ;
#104 = EDGE_LOOP ( 'NONE', ( #123 ) ) ;
#105 = FACE_OUTER_BOUND ( 'NONE', #101, .T. ) ;
#106 = ADVANCED_FACE ( 'NONE', ( #5, #25 ), #126, .T. ) ;
#107 = VERTEX_POINT ( 'NONE', #90 ) ;
#108 = ADVANCED_FACE ( 'NONE', ( #2, #118 ), #80, .F. ) ;
#109 = ADVANCED_FACE ( 'NONE', ( #66, #113 ), #85, .F. ) ;
#110 = ADVANCED_FACE ( 'NONE', ( #105, #48 ), #133, .F. ) ;
#111 = EDGE_LOOP ( 'NONE', ( #102 ) ) ;
#112 = ORIENTED_EDGE ( 'NONE', *, *, #40, .T. ) ;
#113 = FACE_BOUND ( 'NONE', #1, .T. ) ;
#114 = UNCERTAINTY_MEASURE_WITH_UNIT (LENGTH_MEASURE( 1.000000000000000100E-005 ), #12, 'distance_accuracy_value', 'NONE');
#115 = COLOUR_RGB ( '',1.000000000000000000, 1.000000000000000000, 1.000000000000000000 ) ;
#116 = EDGE_LOOP ( 'NONE', ( #10 ) ) ;
#117 = COLOUR_RGB ( '',1.000000000000000000, 1.000000000000000000, 1.000000000000000000 ) ;
#118 = FACE_OUTER_BOUND ( 'NONE', #98, .T. ) ;
#119 = EDGE_LOOP ( 'NONE', ( #122 ) ) ;
#120 = PRODUCT_DEFINITION_CONTEXT ( 'detailed design', #18, 'design' ) ;
#121 = UNCERTAINTY_MEASURE_WITH_UNIT (LENGTH_MEASURE( 1.000000000000000100E-005 ), #60, 'distance_accuracy_value', 'NONE');
#122 = ORIENTED_EDGE ( 'NONE', *, *, #41, .T. ) ;
#123 = ORIENTED_EDGE ( 'NONE', *, *, #40, .F. ) ;
#124 = PRESENTATION_STYLE_ASSIGNMENT (( #57 ) ) ;
#125 = CIRCLE ( 'NONE', #47, 8.000000000000000000 ) ;
#126 = CYLINDRICAL_SURFACE ( 'NONE', #34, 8.000000000000000000 ) ;
#127 = VERTEX_POINT ( 'NONE', #93 ) ;
#128 = VERTEX_POINT ( 'NONE', #89 ) ;
#129 = PRODUCT_DEFINITION_SHAPE ( 'NONE', 'NONE',  #23 ) ;
#130 = ADVANCED_BREP_SHAPE_REPRESENTATION ( '1136-Z1P-A', ( #22, #24 ), #31 ) ;
#131 = PRESENTATION_STYLE_ASSIGNMENT (( #11 ) ) ;
#132 = CIRCLE ( 'NONE', #53, 8.000000000000000000 ) ;
#133 = CYLINDRICAL_SURFACE ( 'NONE', #30, 4.200000000000000200 ) ;
#134 = ORIENTED_EDGE ( 'NONE', *, *, #38, .T. ) ;
ENDSEC;
END-ISO-10303-21;
