ISO-10303-21;
HEADER;
/* Generated by software containing ST-Developer
 * from STEP Tools, Inc. (www.steptools.com) 
 */
/* OPTION: using custom renumber hook */

FILE_DESCRIPTION(
/* description */ ('STEP AP242',
'CAx-IF Rec.Pracs.---Representation and Presentation of Product Manufa
cturing Information (PMI)---4.0---2014-10-13',
'CAx-IF Rec.Pracs.---3D Tessellated Geometry---0.4---2014-09-14','2;1'),

/* implementation_level */ '2;1');

FILE_NAME(
/* name */ '65d8d57b3d8d1747465ad292',
/* time_stamp */ '2024-02-23T17:27:23Z',
/* author */ (''),
/* organization */ (''),
/* preprocessor_version */ 'ST-DEVELOPER v19.4',
/* originating_system */ '  ',
/* authorisation */ '  ');

FILE_SCHEMA (('AP242_MANAGED_MODEL_BASED_3D_ENGINEERING_MIM_LF { 1 0 10303 442 1 1 4 }'));
ENDSEC;

DATA;
#10=SHAPE_REPRESENTATION_RELATIONSHIP('','',#220,#11);
#11=ADVANCED_BREP_SHAPE_REPRESENTATION('',(#218),#373);
#12=CONICAL_SURFACE('',#238,0.0115,0.785398163397448);
#13=PLANE('',#228);
#14=PLANE('',#230);
#15=PLANE('',#241);
#16=ORIENTED_EDGE('',*,*,#54,.T.);
#17=ORIENTED_EDGE('',*,*,#55,.T.);
#18=ORIENTED_EDGE('',*,*,#56,.F.);
#19=ORIENTED_EDGE('',*,*,#57,.T.);
#20=ORIENTED_EDGE('',*,*,#58,.F.);
#21=ORIENTED_EDGE('',*,*,#56,.T.);
#22=ORIENTED_EDGE('',*,*,#59,.T.);
#23=ORIENTED_EDGE('',*,*,#60,.T.);
#24=ORIENTED_EDGE('',*,*,#61,.T.);
#25=ORIENTED_EDGE('',*,*,#62,.T.);
#26=ORIENTED_EDGE('',*,*,#63,.T.);
#27=ORIENTED_EDGE('',*,*,#64,.T.);
#28=ORIENTED_EDGE('',*,*,#65,.T.);
#29=ORIENTED_EDGE('',*,*,#57,.F.);
#30=ORIENTED_EDGE('',*,*,#54,.F.);
#31=ORIENTED_EDGE('',*,*,#65,.F.);
#32=ORIENTED_EDGE('',*,*,#66,.F.);
#33=ORIENTED_EDGE('',*,*,#58,.T.);
#34=ORIENTED_EDGE('',*,*,#67,.T.);
#35=ORIENTED_EDGE('',*,*,#68,.T.);
#36=ORIENTED_EDGE('',*,*,#69,.T.);
#37=ORIENTED_EDGE('',*,*,#70,.T.);
#38=ORIENTED_EDGE('',*,*,#71,.T.);
#39=ORIENTED_EDGE('',*,*,#72,.T.);
#40=ORIENTED_EDGE('',*,*,#55,.F.);
#41=ORIENTED_EDGE('',*,*,#66,.T.);
#42=ORIENTED_EDGE('',*,*,#72,.F.);
#43=ORIENTED_EDGE('',*,*,#64,.F.);
#44=ORIENTED_EDGE('',*,*,#71,.F.);
#45=ORIENTED_EDGE('',*,*,#63,.F.);
#46=ORIENTED_EDGE('',*,*,#70,.F.);
#47=ORIENTED_EDGE('',*,*,#62,.F.);
#48=ORIENTED_EDGE('',*,*,#69,.F.);
#49=ORIENTED_EDGE('',*,*,#61,.F.);
#50=ORIENTED_EDGE('',*,*,#68,.F.);
#51=ORIENTED_EDGE('',*,*,#60,.F.);
#52=ORIENTED_EDGE('',*,*,#67,.F.);
#53=ORIENTED_EDGE('',*,*,#59,.F.);
#54=EDGE_CURVE('',#73,#73,#92,.F.);
#55=EDGE_CURVE('',#74,#74,#93,.T.);
#56=EDGE_CURVE('',#75,#75,#94,.T.);
#57=EDGE_CURVE('',#76,#76,#95,.T.);
#58=EDGE_CURVE('',#77,#77,#96,.T.);
#59=EDGE_CURVE('',#78,#78,#97,.T.);
#60=EDGE_CURVE('',#79,#79,#98,.T.);
#61=EDGE_CURVE('',#80,#80,#99,.T.);
#62=EDGE_CURVE('',#81,#81,#100,.T.);
#63=EDGE_CURVE('',#82,#82,#101,.T.);
#64=EDGE_CURVE('',#83,#83,#102,.T.);
#65=EDGE_CURVE('',#84,#84,#103,.T.);
#66=EDGE_CURVE('',#85,#85,#104,.T.);
#67=EDGE_CURVE('',#86,#86,#105,.F.);
#68=EDGE_CURVE('',#87,#87,#106,.F.);
#69=EDGE_CURVE('',#88,#88,#107,.F.);
#70=EDGE_CURVE('',#89,#89,#108,.F.);
#71=EDGE_CURVE('',#90,#90,#109,.F.);
#72=EDGE_CURVE('',#91,#91,#110,.F.);
#73=VERTEX_POINT('',#323);
#74=VERTEX_POINT('',#325);
#75=VERTEX_POINT('',#328);
#76=VERTEX_POINT('',#330);
#77=VERTEX_POINT('',#333);
#78=VERTEX_POINT('',#336);
#79=VERTEX_POINT('',#338);
#80=VERTEX_POINT('',#340);
#81=VERTEX_POINT('',#342);
#82=VERTEX_POINT('',#344);
#83=VERTEX_POINT('',#346);
#84=VERTEX_POINT('',#348);
#85=VERTEX_POINT('',#352);
#86=VERTEX_POINT('',#355);
#87=VERTEX_POINT('',#357);
#88=VERTEX_POINT('',#359);
#89=VERTEX_POINT('',#361);
#90=VERTEX_POINT('',#363);
#91=VERTEX_POINT('',#365);
#92=CIRCLE('',#223,0.0105);
#93=CIRCLE('',#224,0.0105);
#94=CIRCLE('',#226,0.027);
#95=CIRCLE('',#227,0.027);
#96=CIRCLE('',#229,0.025);
#97=CIRCLE('',#231,0.00265);
#98=CIRCLE('',#232,0.00265);
#99=CIRCLE('',#233,0.00265);
#100=CIRCLE('',#234,0.00265);
#101=CIRCLE('',#235,0.00265);
#102=CIRCLE('',#236,0.00265);
#103=CIRCLE('',#237,0.0115);
#104=CIRCLE('',#240,0.025);
#105=CIRCLE('',#242,0.00265);
#106=CIRCLE('',#243,0.00265);
#107=CIRCLE('',#244,0.00265);
#108=CIRCLE('',#245,0.00265);
#109=CIRCLE('',#246,0.00265);
#110=CIRCLE('',#247,0.00265);
#111=EDGE_LOOP('',(#16));
#112=EDGE_LOOP('',(#17));
#113=EDGE_LOOP('',(#18));
#114=EDGE_LOOP('',(#19));
#115=EDGE_LOOP('',(#20));
#116=EDGE_LOOP('',(#21));
#117=EDGE_LOOP('',(#22));
#118=EDGE_LOOP('',(#23));
#119=EDGE_LOOP('',(#24));
#120=EDGE_LOOP('',(#25));
#121=EDGE_LOOP('',(#26));
#122=EDGE_LOOP('',(#27));
#123=EDGE_LOOP('',(#28));
#124=EDGE_LOOP('',(#29));
#125=EDGE_LOOP('',(#30));
#126=EDGE_LOOP('',(#31));
#127=EDGE_LOOP('',(#32));
#128=EDGE_LOOP('',(#33));
#129=EDGE_LOOP('',(#34));
#130=EDGE_LOOP('',(#35));
#131=EDGE_LOOP('',(#36));
#132=EDGE_LOOP('',(#37));
#133=EDGE_LOOP('',(#38));
#134=EDGE_LOOP('',(#39));
#135=EDGE_LOOP('',(#40));
#136=EDGE_LOOP('',(#41));
#137=EDGE_LOOP('',(#42));
#138=EDGE_LOOP('',(#43));
#139=EDGE_LOOP('',(#44));
#140=EDGE_LOOP('',(#45));
#141=EDGE_LOOP('',(#46));
#142=EDGE_LOOP('',(#47));
#143=EDGE_LOOP('',(#48));
#144=EDGE_LOOP('',(#49));
#145=EDGE_LOOP('',(#50));
#146=EDGE_LOOP('',(#51));
#147=EDGE_LOOP('',(#52));
#148=EDGE_LOOP('',(#53));
#149=FACE_BOUND('',#111,.T.);
#150=FACE_BOUND('',#112,.T.);
#151=FACE_BOUND('',#113,.T.);
#152=FACE_BOUND('',#114,.T.);
#153=FACE_BOUND('',#115,.T.);
#154=FACE_BOUND('',#116,.T.);
#155=FACE_BOUND('',#117,.T.);
#156=FACE_BOUND('',#118,.T.);
#157=FACE_BOUND('',#119,.T.);
#158=FACE_BOUND('',#120,.T.);
#159=FACE_BOUND('',#121,.T.);
#160=FACE_BOUND('',#122,.T.);
#161=FACE_BOUND('',#123,.T.);
#162=FACE_BOUND('',#124,.T.);
#163=FACE_BOUND('',#125,.T.);
#164=FACE_BOUND('',#126,.T.);
#165=FACE_BOUND('',#127,.T.);
#166=FACE_BOUND('',#128,.T.);
#167=FACE_BOUND('',#129,.T.);
#168=FACE_BOUND('',#130,.T.);
#169=FACE_BOUND('',#131,.T.);
#170=FACE_BOUND('',#132,.T.);
#171=FACE_BOUND('',#133,.T.);
#172=FACE_BOUND('',#134,.T.);
#173=FACE_BOUND('',#135,.T.);
#174=FACE_BOUND('',#136,.T.);
#175=FACE_BOUND('',#137,.T.);
#176=FACE_BOUND('',#138,.T.);
#177=FACE_BOUND('',#139,.T.);
#178=FACE_BOUND('',#140,.T.);
#179=FACE_BOUND('',#141,.T.);
#180=FACE_BOUND('',#142,.T.);
#181=FACE_BOUND('',#143,.T.);
#182=FACE_BOUND('',#144,.T.);
#183=FACE_BOUND('',#145,.T.);
#184=FACE_BOUND('',#146,.T.);
#185=FACE_BOUND('',#147,.T.);
#186=FACE_BOUND('',#148,.T.);
#187=CYLINDRICAL_SURFACE('',#222,0.0105);
#188=CYLINDRICAL_SURFACE('',#225,0.027);
#189=CYLINDRICAL_SURFACE('',#239,0.025);
#190=CYLINDRICAL_SURFACE('',#248,0.00265);
#191=CYLINDRICAL_SURFACE('',#249,0.00265);
#192=CYLINDRICAL_SURFACE('',#250,0.00265);
#193=CYLINDRICAL_SURFACE('',#251,0.00265);
#194=CYLINDRICAL_SURFACE('',#252,0.00265);
#195=CYLINDRICAL_SURFACE('',#253,0.00265);
#196=ADVANCED_FACE('',(#149,#150),#187,.F.);
#197=ADVANCED_FACE('',(#151,#152),#188,.T.);
#198=ADVANCED_FACE('',(#153,#154),#13,.T.);
#199=ADVANCED_FACE('',(#155,#156,#157,#158,#159,#160,#161,#162),#14,.F.);
#200=ADVANCED_FACE('',(#163,#164),#12,.F.);
#201=ADVANCED_FACE('',(#165,#166),#189,.T.);
#202=ADVANCED_FACE('',(#167,#168,#169,#170,#171,#172,#173,#174),#15,.T.);
#203=ADVANCED_FACE('',(#175,#176),#190,.F.);
#204=ADVANCED_FACE('',(#177,#178),#191,.F.);
#205=ADVANCED_FACE('',(#179,#180),#192,.F.);
#206=ADVANCED_FACE('',(#181,#182),#193,.F.);
#207=ADVANCED_FACE('',(#183,#184),#194,.F.);
#208=ADVANCED_FACE('',(#185,#186),#195,.F.);
#209=CLOSED_SHELL('',(#196,#197,#198,#199,#200,#201,#202,#203,#204,#205,
#206,#207,#208));
#210=STYLED_ITEM('',(#211),#218);
#211=PRESENTATION_STYLE_ASSIGNMENT((#212));
#212=SURFACE_STYLE_USAGE(.BOTH.,#213);
#213=SURFACE_SIDE_STYLE('',(#214));
#214=SURFACE_STYLE_FILL_AREA(#215);
#215=FILL_AREA_STYLE('',(#216));
#216=FILL_AREA_STYLE_COLOUR('',#217);
#217=COLOUR_RGB('',0.647058823529412,0.647058823529412,0.647058823529412);
#218=MANIFOLD_SOLID_BREP('Output Disc',#209);
#219=SHAPE_DEFINITION_REPRESENTATION(#378,#220);
#220=SHAPE_REPRESENTATION('Output Disc',(#221),#373);
#221=AXIS2_PLACEMENT_3D('',#320,#254,#255);
#222=AXIS2_PLACEMENT_3D('',#321,#256,#257);
#223=AXIS2_PLACEMENT_3D('',#322,#258,#259);
#224=AXIS2_PLACEMENT_3D('',#324,#260,#261);
#225=AXIS2_PLACEMENT_3D('',#326,#262,#263);
#226=AXIS2_PLACEMENT_3D('',#327,#264,#265);
#227=AXIS2_PLACEMENT_3D('',#329,#266,#267);
#228=AXIS2_PLACEMENT_3D('',#331,#268,#269);
#229=AXIS2_PLACEMENT_3D('',#332,#270,#271);
#230=AXIS2_PLACEMENT_3D('',#334,#272,#273);
#231=AXIS2_PLACEMENT_3D('',#335,#274,#275);
#232=AXIS2_PLACEMENT_3D('',#337,#276,#277);
#233=AXIS2_PLACEMENT_3D('',#339,#278,#279);
#234=AXIS2_PLACEMENT_3D('',#341,#280,#281);
#235=AXIS2_PLACEMENT_3D('',#343,#282,#283);
#236=AXIS2_PLACEMENT_3D('',#345,#284,#285);
#237=AXIS2_PLACEMENT_3D('',#347,#286,#287);
#238=AXIS2_PLACEMENT_3D('',#349,#288,#289);
#239=AXIS2_PLACEMENT_3D('',#350,#290,#291);
#240=AXIS2_PLACEMENT_3D('',#351,#292,#293);
#241=AXIS2_PLACEMENT_3D('',#353,#294,#295);
#242=AXIS2_PLACEMENT_3D('',#354,#296,#297);
#243=AXIS2_PLACEMENT_3D('',#356,#298,#299);
#244=AXIS2_PLACEMENT_3D('',#358,#300,#301);
#245=AXIS2_PLACEMENT_3D('',#360,#302,#303);
#246=AXIS2_PLACEMENT_3D('',#362,#304,#305);
#247=AXIS2_PLACEMENT_3D('',#364,#306,#307);
#248=AXIS2_PLACEMENT_3D('',#366,#308,#309);
#249=AXIS2_PLACEMENT_3D('',#367,#310,#311);
#250=AXIS2_PLACEMENT_3D('',#368,#312,#313);
#251=AXIS2_PLACEMENT_3D('',#369,#314,#315);
#252=AXIS2_PLACEMENT_3D('',#370,#316,#317);
#253=AXIS2_PLACEMENT_3D('',#371,#318,#319);
#254=DIRECTION('',(0.,0.,1.));
#255=DIRECTION('',(1.,0.,0.));
#256=DIRECTION('',(0.,0.,-1.));
#257=DIRECTION('',(-1.,0.,0.));
#258=DIRECTION('',(0.,0.,1.));
#259=DIRECTION('',(1.,0.,0.));
#260=DIRECTION('',(0.,0.,1.));
#261=DIRECTION('',(1.,0.,0.));
#262=DIRECTION('',(0.,0.,-1.));
#263=DIRECTION('',(-1.,0.,0.));
#264=DIRECTION('',(0.,0.,1.));
#265=DIRECTION('',(1.,0.,0.));
#266=DIRECTION('',(0.,0.,1.));
#267=DIRECTION('',(1.,0.,0.));
#268=DIRECTION('',(0.,0.,1.));
#269=DIRECTION('',(1.,0.,0.));
#270=DIRECTION('',(0.,0.,1.));
#271=DIRECTION('',(1.,0.,0.));
#272=DIRECTION('',(0.,0.,1.));
#273=DIRECTION('',(1.,0.,0.));
#274=DIRECTION('',(0.,0.,1.));
#275=DIRECTION('',(1.,0.,0.));
#276=DIRECTION('',(0.,0.,1.));
#277=DIRECTION('',(1.,0.,0.));
#278=DIRECTION('',(0.,0.,1.));
#279=DIRECTION('',(1.,0.,0.));
#280=DIRECTION('',(0.,0.,1.));
#281=DIRECTION('',(1.,0.,0.));
#282=DIRECTION('',(0.,0.,1.));
#283=DIRECTION('',(1.,0.,0.));
#284=DIRECTION('',(0.,0.,1.));
#285=DIRECTION('',(1.,0.,0.));
#286=DIRECTION('',(0.,0.,1.));
#287=DIRECTION('',(1.,0.,0.));
#288=DIRECTION('',(0.,0.,-1.));
#289=DIRECTION('',(-1.,0.,0.));
#290=DIRECTION('',(0.,0.,-1.));
#291=DIRECTION('',(-1.,0.,0.));
#292=DIRECTION('',(0.,0.,1.));
#293=DIRECTION('',(1.,0.,0.));
#294=DIRECTION('',(0.,0.,1.));
#295=DIRECTION('',(1.,0.,0.));
#296=DIRECTION('',(0.,0.,1.));
#297=DIRECTION('',(1.,0.,0.));
#298=DIRECTION('',(0.,0.,1.));
#299=DIRECTION('',(1.,0.,0.));
#300=DIRECTION('',(0.,0.,1.));
#301=DIRECTION('',(1.,0.,0.));
#302=DIRECTION('',(0.,0.,1.));
#303=DIRECTION('',(1.,0.,0.));
#304=DIRECTION('',(0.,0.,1.));
#305=DIRECTION('',(1.,0.,0.));
#306=DIRECTION('',(0.,0.,1.));
#307=DIRECTION('',(1.,0.,0.));
#308=DIRECTION('',(0.,0.,1.));
#309=DIRECTION('',(1.,0.,0.));
#310=DIRECTION('',(0.,0.,1.));
#311=DIRECTION('',(1.,0.,0.));
#312=DIRECTION('',(0.,0.,1.));
#313=DIRECTION('',(1.,0.,0.));
#314=DIRECTION('',(0.,0.,1.));
#315=DIRECTION('',(1.,0.,0.));
#316=DIRECTION('',(0.,0.,1.));
#317=DIRECTION('',(1.,0.,0.));
#318=DIRECTION('',(0.,0.,1.));
#319=DIRECTION('',(1.,0.,0.));
#320=CARTESIAN_POINT('',(0.,0.,0.));
#321=CARTESIAN_POINT('',(0.,6.4293956955236E-19,0.002));
#322=CARTESIAN_POINT('',(0.,6.4293956955236E-19,0.001));
#323=CARTESIAN_POINT('',(0.0105,6.4293956955236E-19,0.001));
#324=CARTESIAN_POINT('',(0.,6.4293956955236E-19,0.009));
#325=CARTESIAN_POINT('',(0.0105,6.4293956955236E-19,0.009));
#326=CARTESIAN_POINT('',(0.,1.65327317884893E-18,0.002));
#327=CARTESIAN_POINT('',(0.,1.65327317884893E-18,0.002));
#328=CARTESIAN_POINT('',(0.027,1.65327317884893E-18,0.002));
#329=CARTESIAN_POINT('',(0.,1.65327317884893E-18,0.));
#330=CARTESIAN_POINT('',(0.027,1.65327317884893E-18,0.));
#331=CARTESIAN_POINT('',(-0.00328630954027176,0.,0.002));
#332=CARTESIAN_POINT('',(0.,2.17374806848655E-18,0.002));
#333=CARTESIAN_POINT('',(0.025,2.17374806848655E-18,0.002));
#334=CARTESIAN_POINT('',(-0.00328630954027176,0.,0.));
#335=CARTESIAN_POINT('',(-0.0173205080756888,-0.01,0.));
#336=CARTESIAN_POINT('',(-0.0146705080756888,-0.01,0.));
#337=CARTESIAN_POINT('',(0.,-0.02,0.));
#338=CARTESIAN_POINT('',(0.00265,-0.02,0.));
#339=CARTESIAN_POINT('',(0.0173205080756888,-0.01,0.));
#340=CARTESIAN_POINT('',(0.0199705080756888,-0.01,0.));
#341=CARTESIAN_POINT('',(0.0173205080756888,0.01,0.));
#342=CARTESIAN_POINT('',(0.0199705080756888,0.01,0.));
#343=CARTESIAN_POINT('',(-3.46944695195361E-18,0.02,0.));
#344=CARTESIAN_POINT('',(0.00265,0.02,0.));
#345=CARTESIAN_POINT('',(-0.0173205080756888,0.01,0.));
#346=CARTESIAN_POINT('',(-0.0146705080756888,0.01,0.));
#347=CARTESIAN_POINT('',(0.,6.4293956955236E-19,0.));
#348=CARTESIAN_POINT('',(0.0115,6.4293956955236E-19,0.));
#349=CARTESIAN_POINT('',(0.,6.4293956955236E-19,0.));
#350=CARTESIAN_POINT('',(0.,2.17374806848655E-18,0.009));
#351=CARTESIAN_POINT('',(0.,2.17374806848655E-18,0.009));
#352=CARTESIAN_POINT('',(0.025,2.17374806848655E-18,0.009));
#353=CARTESIAN_POINT('',(0.,0.,0.009));
#354=CARTESIAN_POINT('',(-0.0173205080756888,-0.01,0.009));
#355=CARTESIAN_POINT('',(-0.0146705080756888,-0.01,0.009));
#356=CARTESIAN_POINT('',(0.,-0.02,0.009));
#357=CARTESIAN_POINT('',(0.00265,-0.02,0.009));
#358=CARTESIAN_POINT('',(0.0173205080756888,-0.01,0.009));
#359=CARTESIAN_POINT('',(0.0199705080756888,-0.01,0.009));
#360=CARTESIAN_POINT('',(0.0173205080756888,0.01,0.009));
#361=CARTESIAN_POINT('',(0.0199705080756888,0.01,0.009));
#362=CARTESIAN_POINT('',(-3.46944695195361E-18,0.02,0.009));
#363=CARTESIAN_POINT('',(0.00265,0.02,0.009));
#364=CARTESIAN_POINT('',(-0.0173205080756888,0.01,0.009));
#365=CARTESIAN_POINT('',(-0.0146705080756888,0.01,0.009));
#366=CARTESIAN_POINT('',(-0.0173205080756888,0.01,0.));
#367=CARTESIAN_POINT('',(-3.46944695195361E-18,0.02,0.));
#368=CARTESIAN_POINT('',(0.0173205080756888,0.01,0.));
#369=CARTESIAN_POINT('',(0.0173205080756888,-0.01,0.));
#370=CARTESIAN_POINT('',(0.,-0.02,0.));
#371=CARTESIAN_POINT('',(-0.0173205080756888,-0.01,0.));
#372=MECHANICAL_DESIGN_GEOMETRIC_PRESENTATION_REPRESENTATION('',(#210),
#373);
#373=(
GEOMETRIC_REPRESENTATION_CONTEXT(3)
GLOBAL_UNCERTAINTY_ASSIGNED_CONTEXT((#374))
GLOBAL_UNIT_ASSIGNED_CONTEXT((#377,#376,#375))
REPRESENTATION_CONTEXT('Output Disc','TOP_LEVEL_ASSEMBLY_PART')
);
#374=UNCERTAINTY_MEASURE_WITH_UNIT(LENGTH_MEASURE(5.E-6),#377,
'DISTANCE_ACCURACY_VALUE','Maximum Tolerance applied to model');
#375=(
NAMED_UNIT(*)
SI_UNIT($,.STERADIAN.)
SOLID_ANGLE_UNIT()
);
#376=(
NAMED_UNIT(*)
PLANE_ANGLE_UNIT()
SI_UNIT($,.RADIAN.)
);
#377=(
LENGTH_UNIT()
NAMED_UNIT(*)
SI_UNIT($,.METRE.)
);
#378=PRODUCT_DEFINITION_SHAPE('','',#379);
#379=PRODUCT_DEFINITION('','',#381,#380);
#380=PRODUCT_DEFINITION_CONTEXT('',#387,'design');
#381=PRODUCT_DEFINITION_FORMATION_WITH_SPECIFIED_SOURCE('','',#383,
 .NOT_KNOWN.);
#382=PRODUCT_RELATED_PRODUCT_CATEGORY('','',(#383));
#383=PRODUCT('Output Disc','Output Disc','Output Disc',(#385));
#384=PRODUCT_CATEGORY('','');
#385=PRODUCT_CONTEXT('',#387,'mechanical');
#386=APPLICATION_PROTOCOL_DEFINITION('international standard',
'ap242_managed_model_based_3d_engineering',2011,#387);
#387=APPLICATION_CONTEXT('managed model based 3d engineering');
ENDSEC;
END-ISO-10303-21;
