ISO-10303-21;
HEADER;
/* Generated by software containing ST-Developer
 * from STEP Tools, Inc. (www.steptools.com) 
 */
/* OPTION: using custom renumber hook */

FILE_DESCRIPTION(
/* description */ ('STEP AP242',
'CAx-IF Rec.Pracs.---Representation and Presentation of Product Manufa
cturing Information (PMI)---4.0---2014-10-13',
'CAx-IF Rec.Pracs.---3D Tessellated Geometry---0.4---2014-09-14','2;1'),

/* implementation_level */ '2;1');

FILE_NAME(
/* name */ '65da3cda3c7fd95060a0079c',
/* time_stamp */ '2024-02-24T19:00:42Z',
/* author */ (''),
/* organization */ (''),
/* preprocessor_version */ 'ST-DEVELOPER v19.4',
/* originating_system */ '  ',
/* authorisation */ '  ');

FILE_SCHEMA (('AP242_MANAGED_MODEL_BASED_3D_ENGINEERING_MIM_LF { 1 0 10303 442 1 1 4 }'));
ENDSEC;

DATA;
#10=SHAPE_REPRESENTATION_RELATIONSHIP('','',#186,#11);
#11=ADVANCED_BREP_SHAPE_REPRESENTATION('',(#184),#315);
#12=CYLINDRICAL_SURFACE('',#194,0.0075);
#13=CYLINDRICAL_SURFACE('',#196,0.009);
#14=CYLINDRICAL_SURFACE('',#200,0.0105);
#15=CYLINDRICAL_SURFACE('',#208,0.0027);
#16=CYLINDRICAL_SURFACE('',#211,0.00145);
#17=CYLINDRICAL_SURFACE('',#212,0.00145);
#18=CIRCLE('',#190,0.00145);
#19=CIRCLE('',#191,0.00145);
#20=CIRCLE('',#192,0.0075);
#21=CIRCLE('',#193,0.0027);
#22=CIRCLE('',#195,0.0075);
#23=CIRCLE('',#197,0.009);
#24=CIRCLE('',#198,0.009);
#25=CIRCLE('',#201,0.0105);
#26=CIRCLE('',#202,0.0105);
#27=CIRCLE('',#204,0.00145);
#28=CIRCLE('',#205,0.00145);
#29=CIRCLE('',#206,0.0027);
#30=CIRCLE('',#209,0.0027);
#31=ORIENTED_EDGE('',*,*,#65,.F.);
#32=ORIENTED_EDGE('',*,*,#66,.T.);
#33=ORIENTED_EDGE('',*,*,#67,.T.);
#34=ORIENTED_EDGE('',*,*,#68,.F.);
#35=ORIENTED_EDGE('',*,*,#69,.F.);
#36=ORIENTED_EDGE('',*,*,#70,.F.);
#37=ORIENTED_EDGE('',*,*,#71,.F.);
#38=ORIENTED_EDGE('',*,*,#72,.T.);
#39=ORIENTED_EDGE('',*,*,#73,.F.);
#40=ORIENTED_EDGE('',*,*,#71,.T.);
#41=ORIENTED_EDGE('',*,*,#74,.F.);
#42=ORIENTED_EDGE('',*,*,#75,.T.);
#43=ORIENTED_EDGE('',*,*,#73,.T.);
#44=ORIENTED_EDGE('',*,*,#75,.F.);
#45=ORIENTED_EDGE('',*,*,#76,.F.);
#46=ORIENTED_EDGE('',*,*,#77,.T.);
#47=ORIENTED_EDGE('',*,*,#78,.T.);
#48=ORIENTED_EDGE('',*,*,#79,.T.);
#49=ORIENTED_EDGE('',*,*,#80,.F.);
#50=ORIENTED_EDGE('',*,*,#67,.F.);
#51=ORIENTED_EDGE('',*,*,#76,.T.);
#52=ORIENTED_EDGE('',*,*,#74,.T.);
#53=ORIENTED_EDGE('',*,*,#77,.F.);
#54=ORIENTED_EDGE('',*,*,#81,.T.);
#55=ORIENTED_EDGE('',*,*,#68,.T.);
#56=ORIENTED_EDGE('',*,*,#80,.T.);
#57=ORIENTED_EDGE('',*,*,#66,.F.);
#58=ORIENTED_EDGE('',*,*,#72,.F.);
#59=ORIENTED_EDGE('',*,*,#65,.T.);
#60=ORIENTED_EDGE('',*,*,#81,.F.);
#61=ORIENTED_EDGE('',*,*,#79,.F.);
#62=ORIENTED_EDGE('',*,*,#70,.T.);
#63=ORIENTED_EDGE('',*,*,#78,.F.);
#64=ORIENTED_EDGE('',*,*,#69,.T.);
#65=EDGE_CURVE('',#82,#83,#97,.T.);
#66=EDGE_CURVE('',#82,#84,#98,.T.);
#67=EDGE_CURVE('',#84,#85,#99,.T.);
#68=EDGE_CURVE('',#83,#85,#100,.T.);
#69=EDGE_CURVE('',#86,#86,#18,.F.);
#70=EDGE_CURVE('',#87,#87,#19,.F.);
#71=EDGE_CURVE('',#88,#88,#20,.T.);
#72=EDGE_CURVE('',#89,#89,#21,.T.);
#73=EDGE_CURVE('',#90,#90,#22,.T.);
#74=EDGE_CURVE('',#91,#91,#23,.T.);
#75=EDGE_CURVE('',#92,#92,#24,.T.);
#76=EDGE_CURVE('',#93,#93,#25,.T.);
#77=EDGE_CURVE('',#94,#94,#26,.T.);
#78=EDGE_CURVE('',#95,#95,#27,.F.);
#79=EDGE_CURVE('',#96,#96,#28,.F.);
#80=EDGE_CURVE('',#85,#84,#29,.T.);
#81=EDGE_CURVE('',#82,#83,#30,.T.);
#82=VERTEX_POINT('',#272);
#83=VERTEX_POINT('',#273);
#84=VERTEX_POINT('',#275);
#85=VERTEX_POINT('',#277);
#86=VERTEX_POINT('',#281);
#87=VERTEX_POINT('',#283);
#88=VERTEX_POINT('',#285);
#89=VERTEX_POINT('',#287);
#90=VERTEX_POINT('',#290);
#91=VERTEX_POINT('',#293);
#92=VERTEX_POINT('',#295);
#93=VERTEX_POINT('',#299);
#94=VERTEX_POINT('',#301);
#95=VERTEX_POINT('',#304);
#96=VERTEX_POINT('',#306);
#97=LINE('',#271,#101);
#98=LINE('',#274,#102);
#99=LINE('',#276,#103);
#100=LINE('',#278,#104);
#101=VECTOR('',#217,1.);
#102=VECTOR('',#218,1.);
#103=VECTOR('',#219,1.);
#104=VECTOR('',#220,1.);
#105=EDGE_LOOP('',(#31,#32,#33,#34));
#106=EDGE_LOOP('',(#35));
#107=EDGE_LOOP('',(#36));
#108=EDGE_LOOP('',(#37));
#109=EDGE_LOOP('',(#38));
#110=EDGE_LOOP('',(#39));
#111=EDGE_LOOP('',(#40));
#112=EDGE_LOOP('',(#41));
#113=EDGE_LOOP('',(#42));
#114=EDGE_LOOP('',(#43));
#115=EDGE_LOOP('',(#44));
#116=EDGE_LOOP('',(#45));
#117=EDGE_LOOP('',(#46));
#118=EDGE_LOOP('',(#47));
#119=EDGE_LOOP('',(#48));
#120=EDGE_LOOP('',(#49,#50));
#121=EDGE_LOOP('',(#51));
#122=EDGE_LOOP('',(#52));
#123=EDGE_LOOP('',(#53));
#124=EDGE_LOOP('',(#54,#55,#56,#57));
#125=EDGE_LOOP('',(#58));
#126=EDGE_LOOP('',(#59,#60));
#127=EDGE_LOOP('',(#61));
#128=EDGE_LOOP('',(#62));
#129=EDGE_LOOP('',(#63));
#130=EDGE_LOOP('',(#64));
#131=FACE_BOUND('',#105,.T.);
#132=FACE_BOUND('',#106,.T.);
#133=FACE_BOUND('',#107,.T.);
#134=FACE_BOUND('',#108,.T.);
#135=FACE_BOUND('',#109,.T.);
#136=FACE_BOUND('',#110,.T.);
#137=FACE_BOUND('',#111,.T.);
#138=FACE_BOUND('',#112,.T.);
#139=FACE_BOUND('',#113,.T.);
#140=FACE_BOUND('',#114,.T.);
#141=FACE_BOUND('',#115,.T.);
#142=FACE_BOUND('',#116,.T.);
#143=FACE_BOUND('',#117,.T.);
#144=FACE_BOUND('',#118,.T.);
#145=FACE_BOUND('',#119,.T.);
#146=FACE_BOUND('',#120,.T.);
#147=FACE_BOUND('',#121,.T.);
#148=FACE_BOUND('',#122,.T.);
#149=FACE_BOUND('',#123,.T.);
#150=FACE_BOUND('',#124,.T.);
#151=FACE_BOUND('',#125,.T.);
#152=FACE_BOUND('',#126,.T.);
#153=FACE_BOUND('',#127,.T.);
#154=FACE_BOUND('',#128,.T.);
#155=FACE_BOUND('',#129,.T.);
#156=FACE_BOUND('',#130,.T.);
#157=PLANE('',#188);
#158=PLANE('',#189);
#159=PLANE('',#199);
#160=PLANE('',#203);
#161=PLANE('',#207);
#162=PLANE('',#210);
#163=ADVANCED_FACE('',(#131),#157,.F.);
#164=ADVANCED_FACE('',(#132,#133,#134,#135),#158,.F.);
#165=ADVANCED_FACE('',(#136,#137),#12,.T.);
#166=ADVANCED_FACE('',(#138,#139),#13,.T.);
#167=ADVANCED_FACE('',(#140,#141),#159,.F.);
#168=ADVANCED_FACE('',(#142,#143),#14,.T.);
#169=ADVANCED_FACE('',(#144,#145,#146,#147),#160,.T.);
#170=ADVANCED_FACE('',(#148,#149),#161,.F.);
#171=ADVANCED_FACE('',(#150,#151),#15,.F.);
#172=ADVANCED_FACE('',(#152),#162,.F.);
#173=ADVANCED_FACE('',(#153,#154),#16,.F.);
#174=ADVANCED_FACE('',(#155,#156),#17,.F.);
#175=CLOSED_SHELL('',(#163,#164,#165,#166,#167,#168,#169,#170,#171,#172,
#173,#174));
#176=STYLED_ITEM('',(#177),#184);
#177=PRESENTATION_STYLE_ASSIGNMENT((#178));
#178=SURFACE_STYLE_USAGE(.BOTH.,#179);
#179=SURFACE_SIDE_STYLE('',(#180));
#180=SURFACE_STYLE_FILL_AREA(#181);
#181=FILL_AREA_STYLE('',(#182));
#182=FILL_AREA_STYLE_COLOUR('',#183);
#183=COLOUR_RGB('',0.647058823529412,0.647058823529412,0.647058823529412);
#184=MANIFOLD_SOLID_BREP('Hub Motor',#175);
#185=SHAPE_DEFINITION_REPRESENTATION(#320,#186);
#186=SHAPE_REPRESENTATION('Hub Motor',(#187),#315);
#187=AXIS2_PLACEMENT_3D('',#269,#213,#214);
#188=AXIS2_PLACEMENT_3D('',#270,#215,#216);
#189=AXIS2_PLACEMENT_3D('',#279,#221,#222);
#190=AXIS2_PLACEMENT_3D('',#280,#223,#224);
#191=AXIS2_PLACEMENT_3D('',#282,#225,#226);
#192=AXIS2_PLACEMENT_3D('',#284,#227,#228);
#193=AXIS2_PLACEMENT_3D('',#286,#229,#230);
#194=AXIS2_PLACEMENT_3D('',#288,#231,#232);
#195=AXIS2_PLACEMENT_3D('',#289,#233,#234);
#196=AXIS2_PLACEMENT_3D('',#291,#235,#236);
#197=AXIS2_PLACEMENT_3D('',#292,#237,#238);
#198=AXIS2_PLACEMENT_3D('',#294,#239,#240);
#199=AXIS2_PLACEMENT_3D('',#296,#241,#242);
#200=AXIS2_PLACEMENT_3D('',#297,#243,#244);
#201=AXIS2_PLACEMENT_3D('',#298,#245,#246);
#202=AXIS2_PLACEMENT_3D('',#300,#247,#248);
#203=AXIS2_PLACEMENT_3D('',#302,#249,#250);
#204=AXIS2_PLACEMENT_3D('',#303,#251,#252);
#205=AXIS2_PLACEMENT_3D('',#305,#253,#254);
#206=AXIS2_PLACEMENT_3D('',#307,#255,#256);
#207=AXIS2_PLACEMENT_3D('',#308,#257,#258);
#208=AXIS2_PLACEMENT_3D('',#309,#259,#260);
#209=AXIS2_PLACEMENT_3D('',#310,#261,#262);
#210=AXIS2_PLACEMENT_3D('',#311,#263,#264);
#211=AXIS2_PLACEMENT_3D('',#312,#265,#266);
#212=AXIS2_PLACEMENT_3D('',#313,#267,#268);
#213=DIRECTION('',(0.,0.,1.));
#214=DIRECTION('',(1.,0.,0.));
#215=DIRECTION('',(0.,-1.,0.));
#216=DIRECTION('',(0.,0.,-1.));
#217=DIRECTION('',(1.,0.,0.));
#218=DIRECTION('',(0.,0.,1.));
#219=DIRECTION('',(1.,0.,0.));
#220=DIRECTION('',(0.,0.,1.));
#221=DIRECTION('',(0.,0.,1.));
#222=DIRECTION('',(1.,0.,0.));
#223=DIRECTION('',(0.,0.,1.));
#224=DIRECTION('',(1.,0.,0.));
#225=DIRECTION('',(0.,0.,1.));
#226=DIRECTION('',(1.,0.,0.));
#227=DIRECTION('',(0.,0.,1.));
#228=DIRECTION('',(1.,0.,0.));
#229=DIRECTION('',(0.,0.,1.));
#230=DIRECTION('',(1.,0.,0.));
#231=DIRECTION('',(0.,0.,-1.));
#232=DIRECTION('',(-1.,0.,0.));
#233=DIRECTION('',(0.,0.,1.));
#234=DIRECTION('',(1.,0.,0.));
#235=DIRECTION('',(0.,0.,-1.));
#236=DIRECTION('',(-1.,0.,0.));
#237=DIRECTION('',(0.,0.,1.));
#238=DIRECTION('',(1.,0.,0.));
#239=DIRECTION('',(0.,0.,1.));
#240=DIRECTION('',(1.,0.,0.));
#241=DIRECTION('',(0.,0.,1.));
#242=DIRECTION('',(1.,0.,0.));
#243=DIRECTION('',(0.,0.,-1.));
#244=DIRECTION('',(-1.,0.,0.));
#245=DIRECTION('',(0.,0.,1.));
#246=DIRECTION('',(1.,0.,0.));
#247=DIRECTION('',(0.,0.,1.));
#248=DIRECTION('',(1.,0.,0.));
#249=DIRECTION('',(0.,0.,1.));
#250=DIRECTION('',(1.,0.,0.));
#251=DIRECTION('',(0.,0.,1.));
#252=DIRECTION('',(1.,0.,0.));
#253=DIRECTION('',(0.,0.,1.));
#254=DIRECTION('',(1.,0.,0.));
#255=DIRECTION('',(0.,0.,1.));
#256=DIRECTION('',(1.,0.,0.));
#257=DIRECTION('',(0.,0.,1.));
#258=DIRECTION('',(1.,0.,0.));
#259=DIRECTION('',(0.,0.,1.));
#260=DIRECTION('',(1.,0.,0.));
#261=DIRECTION('',(0.,0.,1.));
#262=DIRECTION('',(1.,0.,0.));
#263=DIRECTION('',(0.,0.,1.));
#264=DIRECTION('',(1.,0.,0.));
#265=DIRECTION('',(0.,0.,-1.));
#266=DIRECTION('',(-1.,0.,0.));
#267=DIRECTION('',(0.,0.,-1.));
#268=DIRECTION('',(-1.,0.,0.));
#269=CARTESIAN_POINT('',(0.,0.,0.));
#270=CARTESIAN_POINT('',(0.,-0.0019,-0.0149462786614232));
#271=CARTESIAN_POINT('',(0.,-0.0019,0.003));
#272=CARTESIAN_POINT('',(-0.00191833260932509,-0.0019,0.003));
#273=CARTESIAN_POINT('',(0.00191833260932509,-0.0019,0.003));
#274=CARTESIAN_POINT('',(-0.00191833260932509,-0.0019,-0.0149462786614232));
#275=CARTESIAN_POINT('',(-0.00191833260932509,-0.0019,0.0055));
#276=CARTESIAN_POINT('',(0.,-0.0019,0.0055));
#277=CARTESIAN_POINT('',(0.00191833260932509,-0.0019,0.0055));
#278=CARTESIAN_POINT('',(0.00191833260932509,-0.0019,-0.0149462786614232));
#279=CARTESIAN_POINT('',(0.,0.,0.));
#280=CARTESIAN_POINT('',(-0.00501290700810162,-8.67361737988404E-19,0.));
#281=CARTESIAN_POINT('',(-0.00356290700810162,-8.67361737988404E-19,0.));
#282=CARTESIAN_POINT('',(0.00501290700810162,-8.67361737988404E-19,0.));
#283=CARTESIAN_POINT('',(0.00646290700810162,-8.67361737988404E-19,0.));
#284=CARTESIAN_POINT('',(0.,4.59242549680257E-19,0.));
#285=CARTESIAN_POINT('',(0.0075,4.59242549680257E-19,0.));
#286=CARTESIAN_POINT('',(3.08445472543658E-19,-7.58941520739853E-19,0.));
#287=CARTESIAN_POINT('',(0.0027,-7.58941520739853E-19,0.));
#288=CARTESIAN_POINT('',(0.,4.59242549680257E-19,0.004));
#289=CARTESIAN_POINT('',(0.,4.59242549680257E-19,0.004));
#290=CARTESIAN_POINT('',(0.0075,4.59242549680257E-19,0.004));
#291=CARTESIAN_POINT('',(0.,5.51091059616309E-19,0.0045));
#292=CARTESIAN_POINT('',(0.,5.51091059616309E-19,0.0045));
#293=CARTESIAN_POINT('',(0.009,5.51091059616309E-19,0.0045));
#294=CARTESIAN_POINT('',(0.,5.51091059616309E-19,0.004));
#295=CARTESIAN_POINT('',(0.009,5.51091059616309E-19,0.004));
#296=CARTESIAN_POINT('',(0.,0.,0.004));
#297=CARTESIAN_POINT('',(0.,6.4293956955236E-19,0.0055));
#298=CARTESIAN_POINT('',(0.,6.4293956955236E-19,0.0055));
#299=CARTESIAN_POINT('',(0.0105,6.4293956955236E-19,0.0055));
#300=CARTESIAN_POINT('',(0.,6.4293956955236E-19,0.0045));
#301=CARTESIAN_POINT('',(0.0105,6.4293956955236E-19,0.0045));
#302=CARTESIAN_POINT('',(0.,0.,0.0055));
#303=CARTESIAN_POINT('',(-0.00501290700810162,-8.67361737988404E-19,0.0055));
#304=CARTESIAN_POINT('',(-0.00356290700810162,-8.67361737988404E-19,0.0055));
#305=CARTESIAN_POINT('',(0.00501290700810162,-8.67361737988404E-19,0.0055));
#306=CARTESIAN_POINT('',(0.00646290700810162,-8.67361737988404E-19,0.0055));
#307=CARTESIAN_POINT('',(3.08445472543658E-19,-7.58941520739853E-19,0.0055));
#308=CARTESIAN_POINT('',(0.,0.,0.0045));
#309=CARTESIAN_POINT('',(3.08445472543658E-19,-7.58941520739853E-19,-0.0149462786614232));
#310=CARTESIAN_POINT('',(-1.19262238973405E-18,3.25260651745652E-19,0.003));
#311=CARTESIAN_POINT('',(0.,0.,0.003));
#312=CARTESIAN_POINT('',(0.00501290700810162,-8.67361737988404E-19,0.024));
#313=CARTESIAN_POINT('',(-0.00501290700810162,-8.67361737988404E-19,0.024));
#314=MECHANICAL_DESIGN_GEOMETRIC_PRESENTATION_REPRESENTATION('',(#176),
#315);
#315=(
GEOMETRIC_REPRESENTATION_CONTEXT(3)
GLOBAL_UNCERTAINTY_ASSIGNED_CONTEXT((#316))
GLOBAL_UNIT_ASSIGNED_CONTEXT((#319,#318,#317))
REPRESENTATION_CONTEXT('Hub Motor','TOP_LEVEL_ASSEMBLY_PART')
);
#316=UNCERTAINTY_MEASURE_WITH_UNIT(LENGTH_MEASURE(5.E-6),#319,
'DISTANCE_ACCURACY_VALUE','Maximum Tolerance applied to model');
#317=(
NAMED_UNIT(*)
SI_UNIT($,.STERADIAN.)
SOLID_ANGLE_UNIT()
);
#318=(
NAMED_UNIT(*)
PLANE_ANGLE_UNIT()
SI_UNIT($,.RADIAN.)
);
#319=(
LENGTH_UNIT()
NAMED_UNIT(*)
SI_UNIT($,.METRE.)
);
#320=PRODUCT_DEFINITION_SHAPE('','',#321);
#321=PRODUCT_DEFINITION('','',#323,#322);
#322=PRODUCT_DEFINITION_CONTEXT('',#329,'design');
#323=PRODUCT_DEFINITION_FORMATION_WITH_SPECIFIED_SOURCE('','',#325,
 .NOT_KNOWN.);
#324=PRODUCT_RELATED_PRODUCT_CATEGORY('','',(#325));
#325=PRODUCT('Hub Motor','Hub Motor','Hub Motor',(#327));
#326=PRODUCT_CATEGORY('','');
#327=PRODUCT_CONTEXT('',#329,'mechanical');
#328=APPLICATION_PROTOCOL_DEFINITION('international standard',
'ap242_managed_model_based_3d_engineering',2011,#329);
#329=APPLICATION_CONTEXT('managed model based 3d engineering');
ENDSEC;
END-ISO-10303-21;
