ISO-10303-21;
HEADER;
/* Generated by software containing ST-Developer
 * from STEP Tools, Inc. (www.steptools.com) 
 */
/* OPTION: using custom renumber hook */

FILE_DESCRIPTION(
/* description */ ('STEP AP242',
'CAx-IF Rec.Pracs.---Representation and Presentation of Product Manufa
cturing Information (PMI)---4.0---2014-10-13',
'CAx-IF Rec.Pracs.---3D Tessellated Geometry---0.4---2014-09-14','2;1'),

/* implementation_level */ '2;1');

FILE_NAME(
/* name */ '65d8d65e3d8d1747465adad9',
/* time_stamp */ '2024-02-23T17:31:11Z',
/* author */ (''),
/* organization */ (''),
/* preprocessor_version */ 'ST-DEVELOPER v19.4',
/* originating_system */ '  ',
/* authorisation */ '  ');

FILE_SCHEMA (('AP242_MANAGED_MODEL_BASED_3D_ENGINEERING_MIM_LF { 1 0 10303 442 1 1 4 }'));
ENDSEC;

DATA;
#10=SHAPE_REPRESENTATION_RELATIONSHIP('','',#153,#11);
#11=ADVANCED_BREP_SHAPE_REPRESENTATION('',(#151),#255);
#12=LINE('',#229,#16);
#13=LINE('',#246,#17);
#14=LINE('',#249,#18);
#15=LINE('',#250,#19);
#16=VECTOR('',#188,1.);
#17=VECTOR('',#205,1.);
#18=VECTOR('',#210,1.);
#19=VECTOR('',#211,1.);
#20=PLANE('',#158);
#21=PLANE('',#165);
#22=PLANE('',#169);
#23=PLANE('',#171);
#24=ORIENTED_EDGE('',*,*,#52,.F.);
#25=ORIENTED_EDGE('',*,*,#53,.T.);
#26=ORIENTED_EDGE('',*,*,#54,.F.);
#27=ORIENTED_EDGE('',*,*,#55,.F.);
#28=ORIENTED_EDGE('',*,*,#56,.T.);
#29=ORIENTED_EDGE('',*,*,#57,.T.);
#30=ORIENTED_EDGE('',*,*,#53,.F.);
#31=ORIENTED_EDGE('',*,*,#58,.F.);
#32=ORIENTED_EDGE('',*,*,#59,.T.);
#33=ORIENTED_EDGE('',*,*,#60,.T.);
#34=ORIENTED_EDGE('',*,*,#61,.T.);
#35=ORIENTED_EDGE('',*,*,#62,.F.);
#36=ORIENTED_EDGE('',*,*,#63,.F.);
#37=ORIENTED_EDGE('',*,*,#58,.T.);
#38=ORIENTED_EDGE('',*,*,#52,.T.);
#39=ORIENTED_EDGE('',*,*,#59,.F.);
#40=ORIENTED_EDGE('',*,*,#64,.T.);
#41=ORIENTED_EDGE('',*,*,#62,.T.);
#42=ORIENTED_EDGE('',*,*,#65,.F.);
#43=ORIENTED_EDGE('',*,*,#57,.F.);
#44=ORIENTED_EDGE('',*,*,#65,.T.);
#45=ORIENTED_EDGE('',*,*,#63,.T.);
#46=ORIENTED_EDGE('',*,*,#64,.F.);
#47=ORIENTED_EDGE('',*,*,#56,.F.);
#48=ORIENTED_EDGE('',*,*,#61,.F.);
#49=ORIENTED_EDGE('',*,*,#55,.T.);
#50=ORIENTED_EDGE('',*,*,#60,.F.);
#51=ORIENTED_EDGE('',*,*,#54,.T.);
#52=EDGE_CURVE('',#66,#66,#78,.T.);
#53=EDGE_CURVE('',#67,#67,#79,.T.);
#54=EDGE_CURVE('',#68,#68,#80,.F.);
#55=EDGE_CURVE('',#69,#69,#81,.F.);
#56=EDGE_CURVE('',#70,#71,#12,.T.);
#57=EDGE_CURVE('',#71,#70,#82,.T.);
#58=EDGE_CURVE('',#72,#72,#83,.T.);
#59=EDGE_CURVE('',#73,#73,#84,.T.);
#60=EDGE_CURVE('',#74,#74,#85,.F.);
#61=EDGE_CURVE('',#75,#75,#86,.F.);
#62=EDGE_CURVE('',#76,#77,#87,.T.);
#63=EDGE_CURVE('',#77,#76,#13,.T.);
#64=EDGE_CURVE('',#71,#76,#14,.T.);
#65=EDGE_CURVE('',#70,#77,#15,.T.);
#66=VERTEX_POINT('',#221);
#67=VERTEX_POINT('',#223);
#68=VERTEX_POINT('',#226);
#69=VERTEX_POINT('',#228);
#70=VERTEX_POINT('',#230);
#71=VERTEX_POINT('',#231);
#72=VERTEX_POINT('',#235);
#73=VERTEX_POINT('',#237);
#74=VERTEX_POINT('',#240);
#75=VERTEX_POINT('',#242);
#76=VERTEX_POINT('',#244);
#77=VERTEX_POINT('',#245);
#78=CIRCLE('',#156,0.0075);
#79=CIRCLE('',#157,0.0075);
#80=CIRCLE('',#159,0.0017);
#81=CIRCLE('',#160,0.0017);
#82=CIRCLE('',#161,0.0027);
#83=CIRCLE('',#163,0.009);
#84=CIRCLE('',#164,0.009);
#85=CIRCLE('',#166,0.0017);
#86=CIRCLE('',#167,0.0017);
#87=CIRCLE('',#168,0.0027);
#88=EDGE_LOOP('',(#24));
#89=EDGE_LOOP('',(#25));
#90=EDGE_LOOP('',(#26));
#91=EDGE_LOOP('',(#27));
#92=EDGE_LOOP('',(#28,#29));
#93=EDGE_LOOP('',(#30));
#94=EDGE_LOOP('',(#31));
#95=EDGE_LOOP('',(#32));
#96=EDGE_LOOP('',(#33));
#97=EDGE_LOOP('',(#34));
#98=EDGE_LOOP('',(#35,#36));
#99=EDGE_LOOP('',(#37));
#100=EDGE_LOOP('',(#38));
#101=EDGE_LOOP('',(#39));
#102=EDGE_LOOP('',(#40,#41,#42,#43));
#103=EDGE_LOOP('',(#44,#45,#46,#47));
#104=EDGE_LOOP('',(#48));
#105=EDGE_LOOP('',(#49));
#106=EDGE_LOOP('',(#50));
#107=EDGE_LOOP('',(#51));
#108=FACE_BOUND('',#88,.T.);
#109=FACE_BOUND('',#89,.T.);
#110=FACE_BOUND('',#90,.T.);
#111=FACE_BOUND('',#91,.T.);
#112=FACE_BOUND('',#92,.T.);
#113=FACE_BOUND('',#93,.T.);
#114=FACE_BOUND('',#94,.T.);
#115=FACE_BOUND('',#95,.T.);
#116=FACE_BOUND('',#96,.T.);
#117=FACE_BOUND('',#97,.T.);
#118=FACE_BOUND('',#98,.T.);
#119=FACE_BOUND('',#99,.T.);
#120=FACE_BOUND('',#100,.T.);
#121=FACE_BOUND('',#101,.T.);
#122=FACE_BOUND('',#102,.T.);
#123=FACE_BOUND('',#103,.T.);
#124=FACE_BOUND('',#104,.T.);
#125=FACE_BOUND('',#105,.T.);
#126=FACE_BOUND('',#106,.T.);
#127=FACE_BOUND('',#107,.T.);
#128=CYLINDRICAL_SURFACE('',#155,0.0075);
#129=CYLINDRICAL_SURFACE('',#162,0.009);
#130=CYLINDRICAL_SURFACE('',#170,0.0027);
#131=CYLINDRICAL_SURFACE('',#172,0.0017);
#132=CYLINDRICAL_SURFACE('',#173,0.0017);
#133=ADVANCED_FACE('',(#108,#109),#128,.T.);
#134=ADVANCED_FACE('',(#110,#111,#112,#113),#20,.F.);
#135=ADVANCED_FACE('',(#114,#115),#129,.T.);
#136=ADVANCED_FACE('',(#116,#117,#118,#119),#21,.T.);
#137=ADVANCED_FACE('',(#120,#121),#22,.F.);
#138=ADVANCED_FACE('',(#122),#130,.F.);
#139=ADVANCED_FACE('',(#123),#23,.F.);
#140=ADVANCED_FACE('',(#124,#125),#131,.F.);
#141=ADVANCED_FACE('',(#126,#127),#132,.F.);
#142=CLOSED_SHELL('',(#133,#134,#135,#136,#137,#138,#139,#140,#141));
#143=STYLED_ITEM('',(#144),#151);
#144=PRESENTATION_STYLE_ASSIGNMENT((#145));
#145=SURFACE_STYLE_USAGE(.BOTH.,#146);
#146=SURFACE_SIDE_STYLE('',(#147));
#147=SURFACE_STYLE_FILL_AREA(#148);
#148=FILL_AREA_STYLE('',(#149));
#149=FILL_AREA_STYLE_COLOUR('',#150);
#150=COLOUR_RGB('',0.796078431372549,0.905882352941176,0.745098039215686);
#151=MANIFOLD_SOLID_BREP('Disc 1 Hub',#142);
#152=SHAPE_DEFINITION_REPRESENTATION(#260,#153);
#153=SHAPE_REPRESENTATION('Disc 1 Hub',(#154),#255);
#154=AXIS2_PLACEMENT_3D('',#218,#174,#175);
#155=AXIS2_PLACEMENT_3D('',#219,#176,#177);
#156=AXIS2_PLACEMENT_3D('',#220,#178,#179);
#157=AXIS2_PLACEMENT_3D('',#222,#180,#181);
#158=AXIS2_PLACEMENT_3D('',#224,#182,#183);
#159=AXIS2_PLACEMENT_3D('',#225,#184,#185);
#160=AXIS2_PLACEMENT_3D('',#227,#186,#187);
#161=AXIS2_PLACEMENT_3D('',#232,#189,#190);
#162=AXIS2_PLACEMENT_3D('',#233,#191,#192);
#163=AXIS2_PLACEMENT_3D('',#234,#193,#194);
#164=AXIS2_PLACEMENT_3D('',#236,#195,#196);
#165=AXIS2_PLACEMENT_3D('',#238,#197,#198);
#166=AXIS2_PLACEMENT_3D('',#239,#199,#200);
#167=AXIS2_PLACEMENT_3D('',#241,#201,#202);
#168=AXIS2_PLACEMENT_3D('',#243,#203,#204);
#169=AXIS2_PLACEMENT_3D('',#247,#206,#207);
#170=AXIS2_PLACEMENT_3D('',#248,#208,#209);
#171=AXIS2_PLACEMENT_3D('',#251,#212,#213);
#172=AXIS2_PLACEMENT_3D('',#252,#214,#215);
#173=AXIS2_PLACEMENT_3D('',#253,#216,#217);
#174=DIRECTION('',(0.,0.,1.));
#175=DIRECTION('',(1.,0.,0.));
#176=DIRECTION('',(0.,0.,-1.));
#177=DIRECTION('',(-1.,0.,0.));
#178=DIRECTION('',(0.,0.,1.));
#179=DIRECTION('',(1.,0.,0.));
#180=DIRECTION('',(0.,0.,1.));
#181=DIRECTION('',(1.,0.,0.));
#182=DIRECTION('',(0.,0.,1.));
#183=DIRECTION('',(1.,0.,0.));
#184=DIRECTION('',(0.,0.,1.));
#185=DIRECTION('',(1.,0.,0.));
#186=DIRECTION('',(0.,0.,1.));
#187=DIRECTION('',(1.,0.,0.));
#188=DIRECTION('',(1.,0.,0.));
#189=DIRECTION('',(0.,0.,1.));
#190=DIRECTION('',(1.,0.,0.));
#191=DIRECTION('',(0.,0.,-1.));
#192=DIRECTION('',(-1.,0.,0.));
#193=DIRECTION('',(0.,0.,1.));
#194=DIRECTION('',(1.,0.,0.));
#195=DIRECTION('',(0.,0.,1.));
#196=DIRECTION('',(1.,0.,0.));
#197=DIRECTION('',(0.,0.,1.));
#198=DIRECTION('',(1.,0.,0.));
#199=DIRECTION('',(0.,0.,1.));
#200=DIRECTION('',(1.,0.,0.));
#201=DIRECTION('',(0.,0.,1.));
#202=DIRECTION('',(1.,0.,0.));
#203=DIRECTION('',(0.,0.,1.));
#204=DIRECTION('',(1.,0.,0.));
#205=DIRECTION('',(1.,0.,0.));
#206=DIRECTION('',(0.,0.,1.));
#207=DIRECTION('',(1.,0.,0.));
#208=DIRECTION('',(0.,0.,1.));
#209=DIRECTION('',(1.,0.,0.));
#210=DIRECTION('',(0.,0.,1.));
#211=DIRECTION('',(0.,0.,1.));
#212=DIRECTION('',(0.,-1.,0.));
#213=DIRECTION('',(0.,0.,-1.));
#214=DIRECTION('',(0.,0.,-1.));
#215=DIRECTION('',(-1.,0.,0.));
#216=DIRECTION('',(0.,0.,-1.));
#217=DIRECTION('',(-1.,0.,0.));
#218=CARTESIAN_POINT('',(0.,0.,0.));
#219=CARTESIAN_POINT('',(0.,0.001607,0.0105));
#220=CARTESIAN_POINT('',(0.,0.001607,0.0105));
#221=CARTESIAN_POINT('',(0.0075,0.001607,0.0105));
#222=CARTESIAN_POINT('',(0.,0.001607,0.0055));
#223=CARTESIAN_POINT('',(0.0075,0.001607,0.0055));
#224=CARTESIAN_POINT('',(0.,5.3499999999998E-5,0.0055));
#225=CARTESIAN_POINT('',(-0.00501290700810162,-8.67361737988404E-19,0.0055));
#226=CARTESIAN_POINT('',(-0.00331290700810162,-8.67361737988404E-19,0.0055));
#227=CARTESIAN_POINT('',(0.00501290700810162,-8.67361737988404E-19,0.0055));
#228=CARTESIAN_POINT('',(0.00671290700810162,-8.67361737988404E-19,0.0055));
#229=CARTESIAN_POINT('',(0.,-0.0019,0.0055));
#230=CARTESIAN_POINT('',(-0.00191833260932509,-0.0019,0.0055));
#231=CARTESIAN_POINT('',(0.00191833260932509,-0.0019,0.0055));
#232=CARTESIAN_POINT('',(3.08445472543658E-19,-7.58941520739853E-19,0.0055));
#233=CARTESIAN_POINT('',(0.,0.001607,0.01175));
#234=CARTESIAN_POINT('',(0.,0.001607,0.01175));
#235=CARTESIAN_POINT('',(0.009,0.001607,0.01175));
#236=CARTESIAN_POINT('',(0.,0.001607,0.0105));
#237=CARTESIAN_POINT('',(0.009,0.001607,0.0105));
#238=CARTESIAN_POINT('',(0.,5.3499999999998E-5,0.01175));
#239=CARTESIAN_POINT('',(-0.00501290700810162,-8.67361737988404E-19,0.01175));
#240=CARTESIAN_POINT('',(-0.00331290700810162,-8.67361737988404E-19,0.01175));
#241=CARTESIAN_POINT('',(0.00501290700810162,-8.67361737988404E-19,0.01175));
#242=CARTESIAN_POINT('',(0.00671290700810162,-8.67361737988404E-19,0.01175));
#243=CARTESIAN_POINT('',(3.08445472543658E-19,-7.58941520739853E-19,0.01175));
#244=CARTESIAN_POINT('',(0.00191833260932509,-0.0019,0.01175));
#245=CARTESIAN_POINT('',(-0.00191833260932509,-0.0019,0.01175));
#246=CARTESIAN_POINT('',(0.,-0.0019,0.01175));
#247=CARTESIAN_POINT('',(0.,5.3499999999998E-5,0.0105));
#248=CARTESIAN_POINT('',(3.08445472543658E-19,-7.58941520739853E-19,-0.0149462786614232));
#249=CARTESIAN_POINT('',(0.00191833260932509,-0.0019,-0.0149462786614232));
#250=CARTESIAN_POINT('',(-0.00191833260932509,-0.0019,-0.0149462786614232));
#251=CARTESIAN_POINT('',(0.,-0.0019,-0.0149462786614232));
#252=CARTESIAN_POINT('',(0.00501290700810162,-8.67361737988404E-19,0.025));
#253=CARTESIAN_POINT('',(-0.00501290700810162,-8.67361737988404E-19,0.025));
#254=MECHANICAL_DESIGN_GEOMETRIC_PRESENTATION_REPRESENTATION('',(#143),
#255);
#255=(
GEOMETRIC_REPRESENTATION_CONTEXT(3)
GLOBAL_UNCERTAINTY_ASSIGNED_CONTEXT((#256))
GLOBAL_UNIT_ASSIGNED_CONTEXT((#259,#258,#257))
REPRESENTATION_CONTEXT('Disc 1 Hub','TOP_LEVEL_ASSEMBLY_PART')
);
#256=UNCERTAINTY_MEASURE_WITH_UNIT(LENGTH_MEASURE(5.E-6),#259,
'DISTANCE_ACCURACY_VALUE','Maximum Tolerance applied to model');
#257=(
NAMED_UNIT(*)
SI_UNIT($,.STERADIAN.)
SOLID_ANGLE_UNIT()
);
#258=(
NAMED_UNIT(*)
PLANE_ANGLE_UNIT()
SI_UNIT($,.RADIAN.)
);
#259=(
LENGTH_UNIT()
NAMED_UNIT(*)
SI_UNIT($,.METRE.)
);
#260=PRODUCT_DEFINITION_SHAPE('','',#261);
#261=PRODUCT_DEFINITION('','',#263,#262);
#262=PRODUCT_DEFINITION_CONTEXT('',#269,'design');
#263=PRODUCT_DEFINITION_FORMATION_WITH_SPECIFIED_SOURCE('','',#265,
 .NOT_KNOWN.);
#264=PRODUCT_RELATED_PRODUCT_CATEGORY('','',(#265));
#265=PRODUCT('Disc 1 Hub','Disc 1 Hub','Disc 1 Hub',(#267));
#266=PRODUCT_CATEGORY('','');
#267=PRODUCT_CONTEXT('',#269,'mechanical');
#268=APPLICATION_PROTOCOL_DEFINITION('international standard',
'ap242_managed_model_based_3d_engineering',2011,#269);
#269=APPLICATION_CONTEXT('managed model based 3d engineering');
ENDSEC;
END-ISO-10303-21;
