ISO-10303-21;
HEADER;
/* Generated by software containing ST-Developer
 * from STEP Tools, Inc. (www.steptools.com) 
 */
/* OPTION: using custom renumber hook */

FILE_DESCRIPTION(
/* description */ ('STEP AP242',
'CAx-IF Rec.Pracs.---Representation and Presentation of Product Manufa
cturing Information (PMI)---4.0---2014-10-13',
'CAx-IF Rec.Pracs.---3D Tessellated Geometry---0.4---2014-09-14','2;1'),

/* implementation_level */ '2;1');

FILE_NAME(
/* name */ '63640db504146c1f3359af86',
/* time_stamp */ '2022-11-03T18:51:34+00:00',
/* author */ (''),
/* organization */ (''),
/* preprocessor_version */ 'ST-DEVELOPER v18.102',
/* originating_system */ '  ',
/* authorisation */ '  ');

FILE_SCHEMA (('AP242_MANAGED_MODEL_BASED_3D_ENGINEERING_MIM_LF { 1 0 10303 442 1 1 4 }'));
ENDSEC;

DATA;
#10=SHAPE_REPRESENTATION_RELATIONSHIP('','',#309,#11);
#11=ADVANCED_BREP_SHAPE_REPRESENTATION('',(#307),#523);
#12=CYLINDRICAL_SURFACE('',#331,0.0044);
#13=CYLINDRICAL_SURFACE('',#335,0.0044);
#14=CYLINDRICAL_SURFACE('',#337,0.001);
#15=CYLINDRICAL_SURFACE('',#338,0.001);
#16=CYLINDRICAL_SURFACE('',#339,0.001);
#17=CYLINDRICAL_SURFACE('',#340,0.001);
#18=CYLINDRICAL_SURFACE('',#341,0.0005);
#19=CYLINDRICAL_SURFACE('',#342,0.0005);
#20=LINE('',#442,#46);
#21=LINE('',#446,#47);
#22=LINE('',#450,#48);
#23=LINE('',#456,#49);
#24=LINE('',#460,#50);
#25=LINE('',#464,#51);
#26=LINE('',#466,#52);
#27=LINE('',#473,#53);
#28=LINE('',#477,#54);
#29=LINE('',#481,#55);
#30=LINE('',#487,#56);
#31=LINE('',#491,#57);
#32=LINE('',#495,#58);
#33=LINE('',#496,#59);
#34=LINE('',#498,#60);
#35=LINE('',#499,#61);
#36=LINE('',#501,#62);
#37=LINE('',#502,#63);
#38=LINE('',#504,#64);
#39=LINE('',#506,#65);
#40=LINE('',#507,#66);
#41=LINE('',#509,#67);
#42=LINE('',#510,#68);
#43=LINE('',#512,#69);
#44=LINE('',#514,#70);
#45=LINE('',#515,#71);
#46=VECTOR('',#351,1.);
#47=VECTOR('',#354,1.);
#48=VECTOR('',#357,1.);
#49=VECTOR('',#362,1.);
#50=VECTOR('',#365,1.);
#51=VECTOR('',#368,1.);
#52=VECTOR('',#371,1.);
#53=VECTOR('',#376,1.);
#54=VECTOR('',#379,1.);
#55=VECTOR('',#382,1.);
#56=VECTOR('',#387,1.);
#57=VECTOR('',#390,1.);
#58=VECTOR('',#395,1.);
#59=VECTOR('',#396,1.);
#60=VECTOR('',#399,1.);
#61=VECTOR('',#400,1.);
#62=VECTOR('',#403,1.);
#63=VECTOR('',#404,1.);
#64=VECTOR('',#407,1.);
#65=VECTOR('',#410,1.);
#66=VECTOR('',#411,1.);
#67=VECTOR('',#414,1.);
#68=VECTOR('',#415,1.);
#69=VECTOR('',#418,1.);
#70=VECTOR('',#421,1.);
#71=VECTOR('',#422,1.);
#72=ORIENTED_EDGE('',*,*,#156,.T.);
#73=ORIENTED_EDGE('',*,*,#157,.T.);
#74=ORIENTED_EDGE('',*,*,#158,.F.);
#75=ORIENTED_EDGE('',*,*,#159,.T.);
#76=ORIENTED_EDGE('',*,*,#160,.F.);
#77=ORIENTED_EDGE('',*,*,#161,.T.);
#78=ORIENTED_EDGE('',*,*,#162,.F.);
#79=ORIENTED_EDGE('',*,*,#163,.T.);
#80=ORIENTED_EDGE('',*,*,#164,.T.);
#81=ORIENTED_EDGE('',*,*,#165,.T.);
#82=ORIENTED_EDGE('',*,*,#166,.T.);
#83=ORIENTED_EDGE('',*,*,#167,.T.);
#84=ORIENTED_EDGE('',*,*,#168,.T.);
#85=ORIENTED_EDGE('',*,*,#169,.T.);
#86=ORIENTED_EDGE('',*,*,#170,.T.);
#87=ORIENTED_EDGE('',*,*,#171,.T.);
#88=ORIENTED_EDGE('',*,*,#172,.F.);
#89=ORIENTED_EDGE('',*,*,#173,.F.);
#90=ORIENTED_EDGE('',*,*,#174,.T.);
#91=ORIENTED_EDGE('',*,*,#175,.F.);
#92=ORIENTED_EDGE('',*,*,#176,.T.);
#93=ORIENTED_EDGE('',*,*,#177,.F.);
#94=ORIENTED_EDGE('',*,*,#178,.F.);
#95=ORIENTED_EDGE('',*,*,#179,.T.);
#96=ORIENTED_EDGE('',*,*,#180,.T.);
#97=ORIENTED_EDGE('',*,*,#181,.T.);
#98=ORIENTED_EDGE('',*,*,#182,.T.);
#99=ORIENTED_EDGE('',*,*,#183,.T.);
#100=ORIENTED_EDGE('',*,*,#182,.F.);
#101=ORIENTED_EDGE('',*,*,#184,.T.);
#102=ORIENTED_EDGE('',*,*,#160,.T.);
#103=ORIENTED_EDGE('',*,*,#185,.T.);
#104=ORIENTED_EDGE('',*,*,#167,.F.);
#105=ORIENTED_EDGE('',*,*,#186,.T.);
#106=ORIENTED_EDGE('',*,*,#175,.T.);
#107=ORIENTED_EDGE('',*,*,#187,.T.);
#108=ORIENTED_EDGE('',*,*,#164,.F.);
#109=ORIENTED_EDGE('',*,*,#188,.T.);
#110=ORIENTED_EDGE('',*,*,#178,.T.);
#111=ORIENTED_EDGE('',*,*,#189,.F.);
#112=ORIENTED_EDGE('',*,*,#177,.T.);
#113=ORIENTED_EDGE('',*,*,#190,.T.);
#114=ORIENTED_EDGE('',*,*,#165,.F.);
#115=ORIENTED_EDGE('',*,*,#189,.T.);
#116=ORIENTED_EDGE('',*,*,#180,.F.);
#117=ORIENTED_EDGE('',*,*,#191,.T.);
#118=ORIENTED_EDGE('',*,*,#162,.T.);
#119=ORIENTED_EDGE('',*,*,#192,.T.);
#120=ORIENTED_EDGE('',*,*,#169,.F.);
#121=ORIENTED_EDGE('',*,*,#193,.T.);
#122=ORIENTED_EDGE('',*,*,#173,.T.);
#123=ORIENTED_EDGE('',*,*,#194,.F.);
#124=ORIENTED_EDGE('',*,*,#172,.T.);
#125=ORIENTED_EDGE('',*,*,#195,.T.);
#126=ORIENTED_EDGE('',*,*,#156,.F.);
#127=ORIENTED_EDGE('',*,*,#194,.T.);
#128=ORIENTED_EDGE('',*,*,#158,.T.);
#129=ORIENTED_EDGE('',*,*,#196,.T.);
#130=ORIENTED_EDGE('',*,*,#170,.F.);
#131=ORIENTED_EDGE('',*,*,#197,.T.);
#132=ORIENTED_EDGE('',*,*,#161,.F.);
#133=ORIENTED_EDGE('',*,*,#184,.F.);
#134=ORIENTED_EDGE('',*,*,#181,.F.);
#135=ORIENTED_EDGE('',*,*,#192,.F.);
#136=ORIENTED_EDGE('',*,*,#176,.F.);
#137=ORIENTED_EDGE('',*,*,#186,.F.);
#138=ORIENTED_EDGE('',*,*,#166,.F.);
#139=ORIENTED_EDGE('',*,*,#190,.F.);
#140=ORIENTED_EDGE('',*,*,#174,.F.);
#141=ORIENTED_EDGE('',*,*,#193,.F.);
#142=ORIENTED_EDGE('',*,*,#168,.F.);
#143=ORIENTED_EDGE('',*,*,#187,.F.);
#144=ORIENTED_EDGE('',*,*,#183,.F.);
#145=ORIENTED_EDGE('',*,*,#185,.F.);
#146=ORIENTED_EDGE('',*,*,#159,.F.);
#147=ORIENTED_EDGE('',*,*,#197,.F.);
#148=ORIENTED_EDGE('',*,*,#171,.F.);
#149=ORIENTED_EDGE('',*,*,#196,.F.);
#150=ORIENTED_EDGE('',*,*,#157,.F.);
#151=ORIENTED_EDGE('',*,*,#195,.F.);
#152=ORIENTED_EDGE('',*,*,#179,.F.);
#153=ORIENTED_EDGE('',*,*,#188,.F.);
#154=ORIENTED_EDGE('',*,*,#163,.F.);
#155=ORIENTED_EDGE('',*,*,#191,.F.);
#156=EDGE_CURVE('',#198,#199,#226,.T.);
#157=EDGE_CURVE('',#199,#200,#227,.F.);
#158=EDGE_CURVE('',#201,#200,#20,.T.);
#159=EDGE_CURVE('',#201,#202,#228,.F.);
#160=EDGE_CURVE('',#203,#202,#21,.T.);
#161=EDGE_CURVE('',#203,#204,#229,.F.);
#162=EDGE_CURVE('',#205,#204,#22,.T.);
#163=EDGE_CURVE('',#205,#206,#230,.F.);
#164=EDGE_CURVE('',#206,#207,#231,.T.);
#165=EDGE_CURVE('',#207,#208,#23,.T.);
#166=EDGE_CURVE('',#208,#209,#232,.F.);
#167=EDGE_CURVE('',#209,#210,#24,.T.);
#168=EDGE_CURVE('',#210,#211,#233,.F.);
#169=EDGE_CURVE('',#211,#198,#25,.T.);
#170=EDGE_CURVE('',#212,#213,#26,.T.);
#171=EDGE_CURVE('',#213,#214,#234,.T.);
#172=EDGE_CURVE('',#215,#214,#235,.T.);
#173=EDGE_CURVE('',#216,#215,#27,.T.);
#174=EDGE_CURVE('',#216,#217,#236,.T.);
#175=EDGE_CURVE('',#218,#217,#28,.T.);
#176=EDGE_CURVE('',#218,#219,#237,.T.);
#177=EDGE_CURVE('',#220,#219,#29,.T.);
#178=EDGE_CURVE('',#221,#220,#238,.T.);
#179=EDGE_CURVE('',#221,#222,#239,.T.);
#180=EDGE_CURVE('',#222,#223,#30,.T.);
#181=EDGE_CURVE('',#223,#224,#240,.T.);
#182=EDGE_CURVE('',#224,#225,#31,.T.);
#183=EDGE_CURVE('',#225,#212,#241,.T.);
#184=EDGE_CURVE('',#224,#203,#32,.F.);
#185=EDGE_CURVE('',#202,#225,#33,.F.);
#186=EDGE_CURVE('',#209,#218,#34,.F.);
#187=EDGE_CURVE('',#217,#210,#35,.T.);
#188=EDGE_CURVE('',#206,#221,#36,.T.);
#189=EDGE_CURVE('',#207,#220,#37,.F.);
#190=EDGE_CURVE('',#219,#208,#38,.T.);
#191=EDGE_CURVE('',#222,#205,#39,.T.);
#192=EDGE_CURVE('',#204,#223,#40,.T.);
#193=EDGE_CURVE('',#211,#216,#41,.F.);
#194=EDGE_CURVE('',#198,#215,#42,.T.);
#195=EDGE_CURVE('',#214,#199,#43,.F.);
#196=EDGE_CURVE('',#200,#213,#44,.F.);
#197=EDGE_CURVE('',#212,#201,#45,.T.);
#198=VERTEX_POINT('',#438);
#199=VERTEX_POINT('',#439);
#200=VERTEX_POINT('',#441);
#201=VERTEX_POINT('',#443);
#202=VERTEX_POINT('',#445);
#203=VERTEX_POINT('',#447);
#204=VERTEX_POINT('',#449);
#205=VERTEX_POINT('',#451);
#206=VERTEX_POINT('',#453);
#207=VERTEX_POINT('',#455);
#208=VERTEX_POINT('',#457);
#209=VERTEX_POINT('',#459);
#210=VERTEX_POINT('',#461);
#211=VERTEX_POINT('',#463);
#212=VERTEX_POINT('',#467);
#213=VERTEX_POINT('',#468);
#214=VERTEX_POINT('',#470);
#215=VERTEX_POINT('',#472);
#216=VERTEX_POINT('',#474);
#217=VERTEX_POINT('',#476);
#218=VERTEX_POINT('',#478);
#219=VERTEX_POINT('',#480);
#220=VERTEX_POINT('',#482);
#221=VERTEX_POINT('',#484);
#222=VERTEX_POINT('',#486);
#223=VERTEX_POINT('',#488);
#224=VERTEX_POINT('',#490);
#225=VERTEX_POINT('',#492);
#226=CIRCLE('',#312,0.0044);
#227=CIRCLE('',#313,0.0005);
#228=CIRCLE('',#314,0.001);
#229=CIRCLE('',#315,0.001);
#230=CIRCLE('',#316,0.0005);
#231=CIRCLE('',#317,0.0044);
#232=CIRCLE('',#318,0.001);
#233=CIRCLE('',#319,0.001);
#234=CIRCLE('',#321,0.0005);
#235=CIRCLE('',#322,0.0044);
#236=CIRCLE('',#323,0.001);
#237=CIRCLE('',#324,0.001);
#238=CIRCLE('',#325,0.0044);
#239=CIRCLE('',#326,0.0005);
#240=CIRCLE('',#327,0.001);
#241=CIRCLE('',#328,0.001);
#242=EDGE_LOOP('',(#72,#73,#74,#75,#76,#77,#78,#79,#80,#81,#82,#83,#84,
#85));
#243=EDGE_LOOP('',(#86,#87,#88,#89,#90,#91,#92,#93,#94,#95,#96,#97,#98,
#99));
#244=EDGE_LOOP('',(#100,#101,#102,#103));
#245=EDGE_LOOP('',(#104,#105,#106,#107));
#246=EDGE_LOOP('',(#108,#109,#110,#111));
#247=EDGE_LOOP('',(#112,#113,#114,#115));
#248=EDGE_LOOP('',(#116,#117,#118,#119));
#249=EDGE_LOOP('',(#120,#121,#122,#123));
#250=EDGE_LOOP('',(#124,#125,#126,#127));
#251=EDGE_LOOP('',(#128,#129,#130,#131));
#252=EDGE_LOOP('',(#132,#133,#134,#135));
#253=EDGE_LOOP('',(#136,#137,#138,#139));
#254=EDGE_LOOP('',(#140,#141,#142,#143));
#255=EDGE_LOOP('',(#144,#145,#146,#147));
#256=EDGE_LOOP('',(#148,#149,#150,#151));
#257=EDGE_LOOP('',(#152,#153,#154,#155));
#258=FACE_BOUND('',#242,.T.);
#259=FACE_BOUND('',#243,.T.);
#260=FACE_BOUND('',#244,.T.);
#261=FACE_BOUND('',#245,.T.);
#262=FACE_BOUND('',#246,.T.);
#263=FACE_BOUND('',#247,.T.);
#264=FACE_BOUND('',#248,.T.);
#265=FACE_BOUND('',#249,.T.);
#266=FACE_BOUND('',#250,.T.);
#267=FACE_BOUND('',#251,.T.);
#268=FACE_BOUND('',#252,.T.);
#269=FACE_BOUND('',#253,.T.);
#270=FACE_BOUND('',#254,.T.);
#271=FACE_BOUND('',#255,.T.);
#272=FACE_BOUND('',#256,.T.);
#273=FACE_BOUND('',#257,.T.);
#274=PLANE('',#311);
#275=PLANE('',#320);
#276=PLANE('',#329);
#277=PLANE('',#330);
#278=PLANE('',#332);
#279=PLANE('',#333);
#280=PLANE('',#334);
#281=PLANE('',#336);
#282=ADVANCED_FACE('',(#258),#274,.F.);
#283=ADVANCED_FACE('',(#259),#275,.T.);
#284=ADVANCED_FACE('',(#260),#276,.F.);
#285=ADVANCED_FACE('',(#261),#277,.T.);
#286=ADVANCED_FACE('',(#262),#12,.F.);
#287=ADVANCED_FACE('',(#263),#278,.F.);
#288=ADVANCED_FACE('',(#264),#279,.T.);
#289=ADVANCED_FACE('',(#265),#280,.F.);
#290=ADVANCED_FACE('',(#266),#13,.F.);
#291=ADVANCED_FACE('',(#267),#281,.T.);
#292=ADVANCED_FACE('',(#268),#14,.T.);
#293=ADVANCED_FACE('',(#269),#15,.T.);
#294=ADVANCED_FACE('',(#270),#16,.T.);
#295=ADVANCED_FACE('',(#271),#17,.T.);
#296=ADVANCED_FACE('',(#272),#18,.T.);
#297=ADVANCED_FACE('',(#273),#19,.T.);
#298=CLOSED_SHELL('',(#282,#283,#284,#285,#286,#287,#288,#289,#290,#291,
#292,#293,#294,#295,#296,#297));
#299=STYLED_ITEM('',(#300),#307);
#300=PRESENTATION_STYLE_ASSIGNMENT((#301));
#301=SURFACE_STYLE_USAGE(.BOTH.,#302);
#302=SURFACE_SIDE_STYLE('',(#303));
#303=SURFACE_STYLE_FILL_AREA(#304);
#304=FILL_AREA_STYLE('',(#305));
#305=FILL_AREA_STYLE_COLOUR('',#306);
#306=COLOUR_RGB('',0.980392156862745,0.713725490196078,0.00392156862745098);
#307=MANIFOLD_SOLID_BREP('IKEA Samla Transverse Partition V01',#298);
#308=SHAPE_DEFINITION_REPRESENTATION(#528,#309);
#309=SHAPE_REPRESENTATION('IKEA Samla Transverse Partition V01',(#310),
#523);
#310=AXIS2_PLACEMENT_3D('',#435,#343,#344);
#311=AXIS2_PLACEMENT_3D('',#436,#345,#346);
#312=AXIS2_PLACEMENT_3D('',#437,#347,#348);
#313=AXIS2_PLACEMENT_3D('',#440,#349,#350);
#314=AXIS2_PLACEMENT_3D('',#444,#352,#353);
#315=AXIS2_PLACEMENT_3D('',#448,#355,#356);
#316=AXIS2_PLACEMENT_3D('',#452,#358,#359);
#317=AXIS2_PLACEMENT_3D('',#454,#360,#361);
#318=AXIS2_PLACEMENT_3D('',#458,#363,#364);
#319=AXIS2_PLACEMENT_3D('',#462,#366,#367);
#320=AXIS2_PLACEMENT_3D('',#465,#369,#370);
#321=AXIS2_PLACEMENT_3D('',#469,#372,#373);
#322=AXIS2_PLACEMENT_3D('',#471,#374,#375);
#323=AXIS2_PLACEMENT_3D('',#475,#377,#378);
#324=AXIS2_PLACEMENT_3D('',#479,#380,#381);
#325=AXIS2_PLACEMENT_3D('',#483,#383,#384);
#326=AXIS2_PLACEMENT_3D('',#485,#385,#386);
#327=AXIS2_PLACEMENT_3D('',#489,#388,#389);
#328=AXIS2_PLACEMENT_3D('',#493,#391,#392);
#329=AXIS2_PLACEMENT_3D('',#494,#393,#394);
#330=AXIS2_PLACEMENT_3D('',#497,#397,#398);
#331=AXIS2_PLACEMENT_3D('',#500,#401,#402);
#332=AXIS2_PLACEMENT_3D('',#503,#405,#406);
#333=AXIS2_PLACEMENT_3D('',#505,#408,#409);
#334=AXIS2_PLACEMENT_3D('',#508,#412,#413);
#335=AXIS2_PLACEMENT_3D('',#511,#416,#417);
#336=AXIS2_PLACEMENT_3D('',#513,#419,#420);
#337=AXIS2_PLACEMENT_3D('',#516,#423,#424);
#338=AXIS2_PLACEMENT_3D('',#517,#425,#426);
#339=AXIS2_PLACEMENT_3D('',#518,#427,#428);
#340=AXIS2_PLACEMENT_3D('',#519,#429,#430);
#341=AXIS2_PLACEMENT_3D('',#520,#431,#432);
#342=AXIS2_PLACEMENT_3D('',#521,#433,#434);
#343=DIRECTION('',(0.,0.,1.));
#344=DIRECTION('',(1.,0.,0.));
#345=DIRECTION('',(1.,0.,0.));
#346=DIRECTION('',(0.,1.,0.));
#347=DIRECTION('',(1.,0.,0.));
#348=DIRECTION('',(0.,0.,-1.));
#349=DIRECTION('',(1.,0.,0.));
#350=DIRECTION('',(0.,0.,-1.));
#351=DIRECTION('',(0.,0.0697564737441248,-0.997564050259824));
#352=DIRECTION('',(1.,0.,0.));
#353=DIRECTION('',(0.,0.,-1.));
#354=DIRECTION('',(0.,-1.,-1.22793330190352E-16));
#355=DIRECTION('',(1.,0.,0.));
#356=DIRECTION('',(0.,0.,-1.));
#357=DIRECTION('',(0.,0.0697564737441248,0.997564050259824));
#358=DIRECTION('',(1.,0.,0.));
#359=DIRECTION('',(0.,0.,-1.));
#360=DIRECTION('',(1.,0.,0.));
#361=DIRECTION('',(0.,0.,-1.));
#362=DIRECTION('',(0.,-0.0697564737441248,-0.997564050259824));
#363=DIRECTION('',(1.,0.,0.));
#364=DIRECTION('',(0.,0.,-1.));
#365=DIRECTION('',(0.,-1.,-1.51130252541971E-16));
#366=DIRECTION('',(1.,0.,0.));
#367=DIRECTION('',(0.,0.,-1.));
#368=DIRECTION('',(0.,-0.0697564737441248,0.997564050259824));
#369=DIRECTION('',(1.,0.,0.));
#370=DIRECTION('',(0.,1.,0.));
#371=DIRECTION('',(0.,0.0697564737441248,-0.997564050259824));
#372=DIRECTION('',(1.,0.,0.));
#373=DIRECTION('',(0.,0.,-1.));
#374=DIRECTION('',(1.,0.,0.));
#375=DIRECTION('',(0.,0.,-1.));
#376=DIRECTION('',(0.,-0.0697564737441248,0.997564050259824));
#377=DIRECTION('',(1.,0.,0.));
#378=DIRECTION('',(0.,0.,-1.));
#379=DIRECTION('',(0.,-1.,-1.51130252541971E-16));
#380=DIRECTION('',(1.,0.,0.));
#381=DIRECTION('',(0.,0.,-1.));
#382=DIRECTION('',(0.,-0.0697564737441248,-0.997564050259824));
#383=DIRECTION('',(1.,0.,0.));
#384=DIRECTION('',(0.,0.,-1.));
#385=DIRECTION('',(1.,0.,0.));
#386=DIRECTION('',(0.,0.,-1.));
#387=DIRECTION('',(0.,0.0697564737441248,0.997564050259824));
#388=DIRECTION('',(1.,0.,0.));
#389=DIRECTION('',(0.,0.,-1.));
#390=DIRECTION('',(0.,-1.,-1.22793330190352E-16));
#391=DIRECTION('',(1.,0.,0.));
#392=DIRECTION('',(0.,0.,-1.));
#393=DIRECTION('',(0.,1.22793330190352E-16,-1.));
#394=DIRECTION('',(0.,1.,1.22793330190352E-16));
#395=DIRECTION('',(1.,0.,0.));
#396=DIRECTION('',(-1.,0.,0.));
#397=DIRECTION('',(0.,1.51130252541971E-16,-1.));
#398=DIRECTION('',(0.,1.,1.51130252541971E-16));
#399=DIRECTION('',(-1.,-2.54382853089372E-18,-3.8444944829744E-34));
#400=DIRECTION('',(-1.,2.54382853089372E-18,3.8444944829744E-34));
#401=DIRECTION('',(1.,2.53145034869578E-18,-1.77016252477597E-19));
#402=DIRECTION('',(0.,-0.656059028990513,0.754709580222767));
#403=DIRECTION('',(1.,2.53145034869578E-18,-1.77016252477597E-19));
#404=DIRECTION('',(-1.,-2.53145034869577E-18,1.77016252477584E-19));
#405=DIRECTION('',(2.53763189244484E-18,-0.997564050259824,0.0697564737441248));
#406=DIRECTION('',(0.,0.0697564737441254,0.997564050259824));
#407=DIRECTION('',(-1.,-2.54382853089372E-18,-3.57257350421657E-34));
#408=DIRECTION('',(0.,0.997564050259824,-0.0697564737441248));
#409=DIRECTION('',(0.,-0.0697564737441254,-0.997564050259824));
#410=DIRECTION('',(-1.,1.01263359004999E-33,1.44813350116411E-32));
#411=DIRECTION('',(1.,0.,0.));
#412=DIRECTION('',(2.53763189244484E-18,0.997564050259824,0.0697564737441248));
#413=DIRECTION('',(0.,-0.0697564737441254,0.997564050259824));
#414=DIRECTION('',(-1.,2.54382853089372E-18,4.11228930747961E-34));
#415=DIRECTION('',(1.,-2.53145034869578E-18,-1.77016252477597E-19));
#416=DIRECTION('',(1.,-2.53145034869578E-18,-1.77016252477597E-19));
#417=DIRECTION('',(0.,0.656059028990513,0.754709580222767));
#418=DIRECTION('',(1.,-2.53145034869578E-18,-1.77016252477597E-19));
#419=DIRECTION('',(0.,-0.997564050259824,-0.0697564737441248));
#420=DIRECTION('',(0.,0.0697564737441254,-0.997564050259824));
#421=DIRECTION('',(-1.,-1.01263359004999E-33,1.44813350116411E-32));
#422=DIRECTION('',(-1.,0.,0.));
#423=DIRECTION('',(-1.,0.,0.));
#424=DIRECTION('',(0.,0.,1.));
#425=DIRECTION('',(1.,2.54382853089372E-18,3.8444944829744E-34));
#426=DIRECTION('',(-2.54382853089372E-18,1.,0.));
#427=DIRECTION('',(1.,-2.54382853089372E-18,-3.82578730495855E-34));
#428=DIRECTION('',(2.54382853089372E-18,1.,0.));
#429=DIRECTION('',(1.,0.,0.));
#430=DIRECTION('',(0.,0.,-1.));
#431=DIRECTION('',(1.,-2.53145034869578E-18,-1.77016252477597E-19));
#432=DIRECTION('',(2.53145034869578E-18,1.,0.));
#433=DIRECTION('',(1.,2.53145034869578E-18,-1.77016252477597E-19));
#434=DIRECTION('',(-2.53145034869578E-18,1.,0.));
#435=CARTESIAN_POINT('',(0.,0.,0.));
#436=CARTESIAN_POINT('',(-0.0012,0.000270999968051882,-0.0568));
#437=CARTESIAN_POINT('',(-0.0012,-0.084075411371364,-0.0307437925888789));
#438=CARTESIAN_POINT('',(-0.0012,-0.0796861295502208,-0.0304368641044048));
#439=CARTESIAN_POINT('',(-0.0012,-0.0826563600971857,-0.0265789044173606));
#440=CARTESIAN_POINT('',(-0.0012,-0.0824951042705746,-0.0261056216705971));
#441=CARTESIAN_POINT('',(-0.0012,-0.0829938862957045,-0.0261404999074692));
#442=CARTESIAN_POINT('',(-0.0012,-0.0804552333701431,-0.0624449281375479));
#443=CARTESIAN_POINT('',(-0.0012,-0.0850057326612695,0.0026302435262559));
#444=CARTESIAN_POINT('',(-0.0012,-0.0840081686110097,0.0027));
#445=CARTESIAN_POINT('',(-0.0012,-0.0840081686110097,0.0037));
#446=CARTESIAN_POINT('',(-0.0012,0.000270999968051869,0.0037));
#447=CARTESIAN_POINT('',(-0.0012,0.0840081686110097,0.0037));
#448=CARTESIAN_POINT('',(-0.0012,0.0840081686110097,0.00270000000000004));
#449=CARTESIAN_POINT('',(-0.0012,0.0850057326612695,0.00263024352625592));
#450=CARTESIAN_POINT('',(-0.0012,0.0804578707232032,-0.062407212231634));
#451=CARTESIAN_POINT('',(-0.0012,0.0829938862957045,-0.0261404999074692));
#452=CARTESIAN_POINT('',(-0.0012,0.0824951042705746,-0.0261056216705971));
#453=CARTESIAN_POINT('',(-0.0012,0.0826563600971857,-0.0265789044173606));
#454=CARTESIAN_POINT('',(-0.0012,0.084075411371364,-0.0307437925888789));
#455=CARTESIAN_POINT('',(-0.0012,0.0796861295502208,-0.0304368641044048));
#456=CARTESIAN_POINT('',(-0.0012,0.0774651785724243,-0.0621979428104017));
#457=CARTESIAN_POINT('',(-0.0012,0.0736771163457489,-0.116369756473744));
#458=CARTESIAN_POINT('',(-0.0012,0.0726795522954891,-0.1163));
#459=CARTESIAN_POINT('',(-0.0012,0.0726795522954891,-0.1173));
#460=CARTESIAN_POINT('',(-0.0012,0.000270999968051911,-0.1173));
#461=CARTESIAN_POINT('',(-0.0012,-0.0726795522954891,-0.1173));
#462=CARTESIAN_POINT('',(-0.0012,-0.0726795522954891,-0.1163));
#463=CARTESIAN_POINT('',(-0.0012,-0.0736771163457489,-0.116369756473744));
#464=CARTESIAN_POINT('',(-0.0012,-0.0774625412193642,-0.0622356587163155));
#465=CARTESIAN_POINT('',(0.0012,0.000270999968051882,-0.0568));
#466=CARTESIAN_POINT('',(0.0012,-0.0804552333701431,-0.0624449281375479));
#467=CARTESIAN_POINT('',(0.0012,-0.0850057326612695,0.0026302435262559));
#468=CARTESIAN_POINT('',(0.0012,-0.0829938862957045,-0.0261404999074692));
#469=CARTESIAN_POINT('',(0.0012,-0.0824951042705746,-0.0261056216705971));
#470=CARTESIAN_POINT('',(0.0012,-0.0826563600971857,-0.0265789044173606));
#471=CARTESIAN_POINT('',(0.0012,-0.084075411371364,-0.0307437925888789));
#472=CARTESIAN_POINT('',(0.0012,-0.0796861295502217,-0.0304368641044049));
#473=CARTESIAN_POINT('',(0.0012,-0.0774625412193642,-0.0622356587163155));
#474=CARTESIAN_POINT('',(0.0012,-0.0736771163457489,-0.116369756473744));
#475=CARTESIAN_POINT('',(0.0012,-0.0726795522954891,-0.1163));
#476=CARTESIAN_POINT('',(0.0012,-0.0726795522954891,-0.1173));
#477=CARTESIAN_POINT('',(0.0012,0.000270999968051911,-0.1173));
#478=CARTESIAN_POINT('',(0.0012,0.0726795522954891,-0.1173));
#479=CARTESIAN_POINT('',(0.0012,0.0726795522954891,-0.1163));
#480=CARTESIAN_POINT('',(0.0012,0.0736771163457489,-0.116369756473744));
#481=CARTESIAN_POINT('',(0.0012,0.0774651785724243,-0.0621979428104017));
#482=CARTESIAN_POINT('',(0.0012,0.0796861295502208,-0.0304368641044048));
#483=CARTESIAN_POINT('',(0.0012,0.084075411371364,-0.0307437925888789));
#484=CARTESIAN_POINT('',(0.0012,0.0826563600971857,-0.0265789044173606));
#485=CARTESIAN_POINT('',(0.0012,0.0824951042705746,-0.0261056216705971));
#486=CARTESIAN_POINT('',(0.0012,0.0829938862957045,-0.0261404999074692));
#487=CARTESIAN_POINT('',(0.0012,0.0804578707232032,-0.062407212231634));
#488=CARTESIAN_POINT('',(0.0012,0.0850057326612695,0.00263024352625592));
#489=CARTESIAN_POINT('',(0.0012,0.0840081686110097,0.00270000000000004));
#490=CARTESIAN_POINT('',(0.0012,0.0840081686110097,0.0037));
#491=CARTESIAN_POINT('',(0.0012,0.000270999968051869,0.0037));
#492=CARTESIAN_POINT('',(0.0012,-0.0840081686110097,0.0037));
#493=CARTESIAN_POINT('',(0.0012,-0.0840081686110097,0.0027));
#494=CARTESIAN_POINT('',(0.0012,0.000270999968051869,0.0037));
#495=CARTESIAN_POINT('',(-0.0012,0.0840081686110097,0.0037));
#496=CARTESIAN_POINT('',(0.0012,-0.0840081686110097,0.0037));
#497=CARTESIAN_POINT('',(0.0012,0.000270999968051911,-0.1173));
#498=CARTESIAN_POINT('',(0.0012,0.0726795522954891,-0.1173));
#499=CARTESIAN_POINT('',(-0.0012,-0.0726795522954891,-0.1173));
#500=CARTESIAN_POINT('',(-0.0332151783983532,0.084075411371364,-0.0307437925888789));
#501=CARTESIAN_POINT('',(-0.0332151783983532,0.0826563600971857,-0.0265789044173606));
#502=CARTESIAN_POINT('',(0.0138481808132016,0.0796861295502217,-0.0304368641044049));
#503=CARTESIAN_POINT('',(0.0138481808132016,0.0685587441937453,-0.189565888397197));
#504=CARTESIAN_POINT('',(-0.0012,0.0736771163457489,-0.116369756473744));
#505=CARTESIAN_POINT('',(0.0138481808132017,0.0854643400482703,0.00918863471061619));
#506=CARTESIAN_POINT('',(-0.0012,0.0829938862957045,-0.0261404999074692));
#507=CARTESIAN_POINT('',(0.0012,0.0850057326612695,0.00263024352625592));
#508=CARTESIAN_POINT('',(0.0138481808132016,-0.0685587441937453,-0.189565888397197));
#509=CARTESIAN_POINT('',(0.0012,-0.0736771163457489,-0.116369756473744));
#510=CARTESIAN_POINT('',(-0.0332151783983532,-0.0796861295502208,-0.0304368641044048));
#511=CARTESIAN_POINT('',(-0.0332151783983532,-0.084075411371364,-0.0307437925888789));
#512=CARTESIAN_POINT('',(-0.0332151783983532,-0.0826563600971857,-0.0265789044173606));
#513=CARTESIAN_POINT('',(0.0138481808132017,-0.0854643400482703,0.00918863471061619));
#514=CARTESIAN_POINT('',(0.0012,-0.0829938862957045,-0.0261404999074692));
#515=CARTESIAN_POINT('',(-0.0012,-0.0850057326612695,0.0026302435262559));
#516=CARTESIAN_POINT('',(0.0138481808132017,0.0840081686110097,0.00270000000000004));
#517=CARTESIAN_POINT('',(0.0138481808132016,0.0726795522954891,-0.1163));
#518=CARTESIAN_POINT('',(0.0012,-0.0726795522954891,-0.1163));
#519=CARTESIAN_POINT('',(0.0138481808132017,-0.0840081686110097,0.0027));
#520=CARTESIAN_POINT('',(-0.0332151783983532,-0.0824951042705746,-0.0261056216705971));
#521=CARTESIAN_POINT('',(-0.0332151783983532,0.0824951042705746,-0.0261056216705971));
#522=MECHANICAL_DESIGN_GEOMETRIC_PRESENTATION_REPRESENTATION('',(#299),
#523);
#523=(
GEOMETRIC_REPRESENTATION_CONTEXT(3)
GLOBAL_UNCERTAINTY_ASSIGNED_CONTEXT((#524))
GLOBAL_UNIT_ASSIGNED_CONTEXT((#527,#526,#525))
REPRESENTATION_CONTEXT('IKEA Samla Transverse Partition V01',
'TOP_LEVEL_ASSEMBLY_PART')
);
#524=UNCERTAINTY_MEASURE_WITH_UNIT(LENGTH_MEASURE(5.E-6),#527,
'DISTANCE_ACCURACY_VALUE','Maximum Tolerance applied to model');
#525=(
NAMED_UNIT(*)
SI_UNIT($,.STERADIAN.)
SOLID_ANGLE_UNIT()
);
#526=(
NAMED_UNIT(*)
PLANE_ANGLE_UNIT()
SI_UNIT($,.RADIAN.)
);
#527=(
LENGTH_UNIT()
NAMED_UNIT(*)
SI_UNIT($,.METRE.)
);
#528=PRODUCT_DEFINITION_SHAPE('','',#529);
#529=PRODUCT_DEFINITION('','',#531,#530);
#530=PRODUCT_DEFINITION_CONTEXT('',#537,'design');
#531=PRODUCT_DEFINITION_FORMATION_WITH_SPECIFIED_SOURCE('','',#533,
 .NOT_KNOWN.);
#532=PRODUCT_RELATED_PRODUCT_CATEGORY('','',(#533));
#533=PRODUCT('IKEA Samla Transverse Partition V01',
'IKEA Samla Transverse Partition V01',
'IKEA Samla Transverse Partition V01',(#535));
#534=PRODUCT_CATEGORY('','');
#535=PRODUCT_CONTEXT('',#537,'mechanical');
#536=APPLICATION_PROTOCOL_DEFINITION('international standard',
'ap242_managed_model_based_3d_engineering',2011,#537);
#537=APPLICATION_CONTEXT('managed model based 3d engineering');
ENDSEC;
END-ISO-10303-21;
