ISO-10303-21;
HEADER;
/* Generated by software containing ST-Developer
 * from STEP Tools, Inc. (www.steptools.com) 
 */
/* OPTION: using custom renumber hook */

FILE_DESCRIPTION(
/* description */ ('STEP AP242',
'CAx-IF Rec.Pracs.---Representation and Presentation of Product Manufa
cturing Information (PMI)---4.0---2014-10-13',
'CAx-IF Rec.Pracs.---3D Tessellated Geometry---0.4---2014-09-14','2;1'),

/* implementation_level */ '2;1');

FILE_NAME(
/* name */ '66cde7547dbf35447a31122d',
/* time_stamp */ '2024-08-27T14:48:53Z',
/* author */ (''),
/* organization */ (''),
/* preprocessor_version */ 'ST-DEVELOPER v20',
/* originating_system */ '  ',
/* authorisation */ '  ');

FILE_SCHEMA (('AP242_MANAGED_MODEL_BASED_3D_ENGINEERING_MIM_LF { 1 0 10303 442 1 1 4 }'));
ENDSEC;

DATA;
#10=SHAPE_REPRESENTATION_RELATIONSHIP('','',#323,#11);
#11=ADVANCED_BREP_SHAPE_REPRESENTATION('',(#321),#525);
#12=CIRCLE('',#328,0.00199999999999996);
#13=CIRCLE('',#329,0.00199999999999996);
#14=CIRCLE('',#332,0.002);
#15=CIRCLE('',#333,0.002);
#16=CIRCLE('',#339,0.006);
#17=CIRCLE('',#340,0.006);
#18=CIRCLE('',#343,0.006);
#19=CIRCLE('',#346,0.006);
#20=CYLINDRICAL_SURFACE('',#327,0.00199999999999996);
#21=CYLINDRICAL_SURFACE('',#331,0.002);
#22=CYLINDRICAL_SURFACE('',#342,0.006);
#23=CYLINDRICAL_SURFACE('',#345,0.006);
#24=ORIENTED_EDGE('',*,*,#108,.F.);
#25=ORIENTED_EDGE('',*,*,#109,.T.);
#26=ORIENTED_EDGE('',*,*,#110,.T.);
#27=ORIENTED_EDGE('',*,*,#111,.T.);
#28=ORIENTED_EDGE('',*,*,#112,.F.);
#29=ORIENTED_EDGE('',*,*,#113,.T.);
#30=ORIENTED_EDGE('',*,*,#114,.F.);
#31=ORIENTED_EDGE('',*,*,#115,.T.);
#32=ORIENTED_EDGE('',*,*,#110,.F.);
#33=ORIENTED_EDGE('',*,*,#116,.T.);
#34=ORIENTED_EDGE('',*,*,#117,.T.);
#35=ORIENTED_EDGE('',*,*,#118,.T.);
#36=ORIENTED_EDGE('',*,*,#119,.F.);
#37=ORIENTED_EDGE('',*,*,#118,.F.);
#38=ORIENTED_EDGE('',*,*,#120,.T.);
#39=ORIENTED_EDGE('',*,*,#121,.T.);
#40=ORIENTED_EDGE('',*,*,#122,.F.);
#41=ORIENTED_EDGE('',*,*,#121,.F.);
#42=ORIENTED_EDGE('',*,*,#123,.T.);
#43=ORIENTED_EDGE('',*,*,#124,.T.);
#44=ORIENTED_EDGE('',*,*,#125,.F.);
#45=ORIENTED_EDGE('',*,*,#124,.F.);
#46=ORIENTED_EDGE('',*,*,#126,.T.);
#47=ORIENTED_EDGE('',*,*,#127,.T.);
#48=ORIENTED_EDGE('',*,*,#128,.T.);
#49=ORIENTED_EDGE('',*,*,#129,.T.);
#50=ORIENTED_EDGE('',*,*,#130,.T.);
#51=ORIENTED_EDGE('',*,*,#127,.F.);
#52=ORIENTED_EDGE('',*,*,#131,.F.);
#53=ORIENTED_EDGE('',*,*,#132,.T.);
#54=ORIENTED_EDGE('',*,*,#108,.T.);
#55=ORIENTED_EDGE('',*,*,#133,.F.);
#56=ORIENTED_EDGE('',*,*,#117,.F.);
#57=ORIENTED_EDGE('',*,*,#134,.T.);
#58=ORIENTED_EDGE('',*,*,#131,.T.);
#59=ORIENTED_EDGE('',*,*,#126,.F.);
#60=ORIENTED_EDGE('',*,*,#123,.F.);
#61=ORIENTED_EDGE('',*,*,#120,.F.);
#62=ORIENTED_EDGE('',*,*,#130,.F.);
#63=ORIENTED_EDGE('',*,*,#135,.T.);
#64=ORIENTED_EDGE('',*,*,#112,.T.);
#65=ORIENTED_EDGE('',*,*,#119,.T.);
#66=ORIENTED_EDGE('',*,*,#122,.T.);
#67=ORIENTED_EDGE('',*,*,#125,.T.);
#68=ORIENTED_EDGE('',*,*,#114,.T.);
#69=ORIENTED_EDGE('',*,*,#136,.T.);
#70=ORIENTED_EDGE('',*,*,#128,.F.);
#71=ORIENTED_EDGE('',*,*,#137,.F.);
#72=ORIENTED_EDGE('',*,*,#138,.F.);
#73=ORIENTED_EDGE('',*,*,#139,.T.);
#74=ORIENTED_EDGE('',*,*,#140,.T.);
#75=ORIENTED_EDGE('',*,*,#141,.F.);
#76=ORIENTED_EDGE('',*,*,#137,.T.);
#77=ORIENTED_EDGE('',*,*,#133,.T.);
#78=ORIENTED_EDGE('',*,*,#111,.F.);
#79=ORIENTED_EDGE('',*,*,#115,.F.);
#80=ORIENTED_EDGE('',*,*,#139,.F.);
#81=ORIENTED_EDGE('',*,*,#142,.F.);
#82=ORIENTED_EDGE('',*,*,#143,.T.);
#83=ORIENTED_EDGE('',*,*,#144,.T.);
#84=ORIENTED_EDGE('',*,*,#138,.T.);
#85=ORIENTED_EDGE('',*,*,#145,.F.);
#86=ORIENTED_EDGE('',*,*,#146,.F.);
#87=ORIENTED_EDGE('',*,*,#142,.T.);
#88=ORIENTED_EDGE('',*,*,#141,.T.);
#89=ORIENTED_EDGE('',*,*,#147,.F.);
#90=ORIENTED_EDGE('',*,*,#148,.F.);
#91=ORIENTED_EDGE('',*,*,#145,.T.);
#92=ORIENTED_EDGE('',*,*,#140,.F.);
#93=ORIENTED_EDGE('',*,*,#144,.F.);
#94=ORIENTED_EDGE('',*,*,#149,.T.);
#95=ORIENTED_EDGE('',*,*,#147,.T.);
#96=ORIENTED_EDGE('',*,*,#143,.F.);
#97=ORIENTED_EDGE('',*,*,#146,.T.);
#98=ORIENTED_EDGE('',*,*,#148,.T.);
#99=ORIENTED_EDGE('',*,*,#149,.F.);
#100=ORIENTED_EDGE('',*,*,#113,.F.);
#101=ORIENTED_EDGE('',*,*,#135,.F.);
#102=ORIENTED_EDGE('',*,*,#129,.F.);
#103=ORIENTED_EDGE('',*,*,#136,.F.);
#104=ORIENTED_EDGE('',*,*,#116,.F.);
#105=ORIENTED_EDGE('',*,*,#109,.F.);
#106=ORIENTED_EDGE('',*,*,#132,.F.);
#107=ORIENTED_EDGE('',*,*,#134,.F.);
#108=EDGE_CURVE('',#150,#151,#178,.T.);
#109=EDGE_CURVE('',#150,#152,#179,.T.);
#110=EDGE_CURVE('',#152,#153,#180,.T.);
#111=EDGE_CURVE('',#153,#151,#181,.T.);
#112=EDGE_CURVE('',#154,#155,#182,.T.);
#113=EDGE_CURVE('',#154,#156,#183,.T.);
#114=EDGE_CURVE('',#157,#156,#184,.T.);
#115=EDGE_CURVE('',#157,#153,#185,.T.);
#116=EDGE_CURVE('',#152,#158,#186,.F.);
#117=EDGE_CURVE('',#158,#159,#187,.T.);
#118=EDGE_CURVE('',#159,#155,#188,.T.);
#119=EDGE_CURVE('',#155,#160,#12,.T.);
#120=EDGE_CURVE('',#159,#161,#13,.T.);
#121=EDGE_CURVE('',#161,#160,#189,.T.);
#122=EDGE_CURVE('',#160,#162,#190,.T.);
#123=EDGE_CURVE('',#161,#163,#191,.T.);
#124=EDGE_CURVE('',#163,#162,#192,.T.);
#125=EDGE_CURVE('',#162,#164,#14,.T.);
#126=EDGE_CURVE('',#163,#165,#15,.T.);
#127=EDGE_CURVE('',#165,#164,#193,.T.);
#128=EDGE_CURVE('',#166,#167,#194,.T.);
#129=EDGE_CURVE('',#167,#168,#195,.T.);
#130=EDGE_CURVE('',#168,#164,#196,.T.);
#131=EDGE_CURVE('',#169,#165,#197,.T.);
#132=EDGE_CURVE('',#169,#150,#198,.F.);
#133=EDGE_CURVE('',#166,#151,#199,.T.);
#134=EDGE_CURVE('',#158,#169,#200,.T.);
#135=EDGE_CURVE('',#168,#154,#201,.T.);
#136=EDGE_CURVE('',#156,#167,#202,.T.);
#137=EDGE_CURVE('',#157,#166,#203,.T.);
#138=EDGE_CURVE('',#170,#171,#16,.T.);
#139=EDGE_CURVE('',#170,#172,#204,.T.);
#140=EDGE_CURVE('',#172,#173,#17,.T.);
#141=EDGE_CURVE('',#171,#173,#205,.T.);
#142=EDGE_CURVE('',#174,#170,#206,.T.);
#143=EDGE_CURVE('',#174,#175,#207,.T.);
#144=EDGE_CURVE('',#175,#172,#208,.T.);
#145=EDGE_CURVE('',#176,#171,#209,.T.);
#146=EDGE_CURVE('',#174,#176,#18,.T.);
#147=EDGE_CURVE('',#177,#173,#210,.T.);
#148=EDGE_CURVE('',#176,#177,#211,.T.);
#149=EDGE_CURVE('',#175,#177,#19,.T.);
#150=VERTEX_POINT('',#439);
#151=VERTEX_POINT('',#440);
#152=VERTEX_POINT('',#442);
#153=VERTEX_POINT('',#444);
#154=VERTEX_POINT('',#448);
#155=VERTEX_POINT('',#449);
#156=VERTEX_POINT('',#451);
#157=VERTEX_POINT('',#453);
#158=VERTEX_POINT('',#456);
#159=VERTEX_POINT('',#458);
#160=VERTEX_POINT('',#462);
#161=VERTEX_POINT('',#464);
#162=VERTEX_POINT('',#468);
#163=VERTEX_POINT('',#470);
#164=VERTEX_POINT('',#474);
#165=VERTEX_POINT('',#476);
#166=VERTEX_POINT('',#480);
#167=VERTEX_POINT('',#481);
#168=VERTEX_POINT('',#483);
#169=VERTEX_POINT('',#486);
#170=VERTEX_POINT('',#498);
#171=VERTEX_POINT('',#499);
#172=VERTEX_POINT('',#501);
#173=VERTEX_POINT('',#503);
#174=VERTEX_POINT('',#507);
#175=VERTEX_POINT('',#509);
#176=VERTEX_POINT('',#513);
#177=VERTEX_POINT('',#517);
#178=LINE('',#438,#212);
#179=LINE('',#441,#213);
#180=LINE('',#443,#214);
#181=LINE('',#445,#215);
#182=LINE('',#447,#216);
#183=LINE('',#450,#217);
#184=LINE('',#452,#218);
#185=LINE('',#454,#219);
#186=LINE('',#455,#220);
#187=LINE('',#457,#221);
#188=LINE('',#459,#222);
#189=LINE('',#465,#223);
#190=LINE('',#467,#224);
#191=LINE('',#469,#225);
#192=LINE('',#471,#226);
#193=LINE('',#477,#227);
#194=LINE('',#479,#228);
#195=LINE('',#482,#229);
#196=LINE('',#484,#230);
#197=LINE('',#485,#231);
#198=LINE('',#487,#232);
#199=LINE('',#488,#233);
#200=LINE('',#490,#234);
#201=LINE('',#492,#235);
#202=LINE('',#494,#236);
#203=LINE('',#495,#237);
#204=LINE('',#500,#238);
#205=LINE('',#504,#239);
#206=LINE('',#506,#240);
#207=LINE('',#508,#241);
#208=LINE('',#510,#242);
#209=LINE('',#512,#243);
#210=LINE('',#516,#244);
#211=LINE('',#518,#245);
#212=VECTOR('',#354,1.);
#213=VECTOR('',#355,1.);
#214=VECTOR('',#356,1.);
#215=VECTOR('',#357,1.);
#216=VECTOR('',#360,1.);
#217=VECTOR('',#361,1.);
#218=VECTOR('',#362,1.);
#219=VECTOR('',#363,1.);
#220=VECTOR('',#364,1.);
#221=VECTOR('',#365,1.);
#222=VECTOR('',#366,1.);
#223=VECTOR('',#373,1.);
#224=VECTOR('',#376,1.);
#225=VECTOR('',#377,1.);
#226=VECTOR('',#378,1.);
#227=VECTOR('',#385,1.);
#228=VECTOR('',#388,1.);
#229=VECTOR('',#389,1.);
#230=VECTOR('',#390,1.);
#231=VECTOR('',#391,1.);
#232=VECTOR('',#392,1.);
#233=VECTOR('',#393,1.);
#234=VECTOR('',#396,1.);
#235=VECTOR('',#399,1.);
#236=VECTOR('',#402,1.);
#237=VECTOR('',#403,1.);
#238=VECTOR('',#408,1.);
#239=VECTOR('',#411,1.);
#240=VECTOR('',#414,1.);
#241=VECTOR('',#415,1.);
#242=VECTOR('',#416,1.);
#243=VECTOR('',#419,1.);
#244=VECTOR('',#424,1.);
#245=VECTOR('',#425,1.);
#246=EDGE_LOOP('',(#24,#25,#26,#27));
#247=EDGE_LOOP('',(#28,#29,#30,#31,#32,#33,#34,#35));
#248=EDGE_LOOP('',(#36,#37,#38,#39));
#249=EDGE_LOOP('',(#40,#41,#42,#43));
#250=EDGE_LOOP('',(#44,#45,#46,#47));
#251=EDGE_LOOP('',(#48,#49,#50,#51,#52,#53,#54,#55));
#252=EDGE_LOOP('',(#56,#57,#58,#59,#60,#61));
#253=EDGE_LOOP('',(#62,#63,#64,#65,#66,#67));
#254=EDGE_LOOP('',(#68,#69,#70,#71));
#255=EDGE_LOOP('',(#72,#73,#74,#75));
#256=EDGE_LOOP('',(#76,#77,#78,#79));
#257=EDGE_LOOP('',(#80,#81,#82,#83));
#258=EDGE_LOOP('',(#84,#85,#86,#87));
#259=EDGE_LOOP('',(#88,#89,#90,#91));
#260=EDGE_LOOP('',(#92,#93,#94,#95));
#261=EDGE_LOOP('',(#96,#97,#98,#99));
#262=EDGE_LOOP('',(#100,#101,#102,#103));
#263=EDGE_LOOP('',(#104,#105,#106,#107));
#264=FACE_BOUND('',#246,.T.);
#265=FACE_BOUND('',#247,.T.);
#266=FACE_BOUND('',#248,.T.);
#267=FACE_BOUND('',#249,.T.);
#268=FACE_BOUND('',#250,.T.);
#269=FACE_BOUND('',#251,.T.);
#270=FACE_BOUND('',#252,.T.);
#271=FACE_BOUND('',#253,.T.);
#272=FACE_BOUND('',#254,.T.);
#273=FACE_BOUND('',#255,.T.);
#274=FACE_BOUND('',#256,.T.);
#275=FACE_BOUND('',#257,.T.);
#276=FACE_BOUND('',#258,.T.);
#277=FACE_BOUND('',#259,.T.);
#278=FACE_BOUND('',#260,.T.);
#279=FACE_BOUND('',#261,.T.);
#280=FACE_BOUND('',#262,.T.);
#281=FACE_BOUND('',#263,.T.);
#282=PLANE('',#325);
#283=PLANE('',#326);
#284=PLANE('',#330);
#285=PLANE('',#334);
#286=PLANE('',#335);
#287=PLANE('',#336);
#288=PLANE('',#337);
#289=PLANE('',#338);
#290=PLANE('',#341);
#291=PLANE('',#344);
#292=PLANE('',#347);
#293=PLANE('',#348);
#294=PLANE('',#349);
#295=ADVANCED_FACE('',(#264),#282,.F.);
#296=ADVANCED_FACE('',(#265),#283,.T.);
#297=ADVANCED_FACE('',(#266),#20,.T.);
#298=ADVANCED_FACE('',(#267),#284,.T.);
#299=ADVANCED_FACE('',(#268),#21,.T.);
#300=ADVANCED_FACE('',(#269),#285,.F.);
#301=ADVANCED_FACE('',(#270),#286,.F.);
#302=ADVANCED_FACE('',(#271),#287,.T.);
#303=ADVANCED_FACE('',(#272),#288,.F.);
#304=ADVANCED_FACE('',(#273,#274),#289,.F.);
#305=ADVANCED_FACE('',(#275),#290,.T.);
#306=ADVANCED_FACE('',(#276),#22,.T.);
#307=ADVANCED_FACE('',(#277),#291,.F.);
#308=ADVANCED_FACE('',(#278),#23,.T.);
#309=ADVANCED_FACE('',(#279),#292,.T.);
#310=ADVANCED_FACE('',(#280),#293,.T.);
#311=ADVANCED_FACE('',(#281),#294,.F.);
#312=CLOSED_SHELL('',(#295,#296,#297,#298,#299,#300,#301,#302,#303,#304,
#305,#306,#307,#308,#309,#310,#311));
#313=STYLED_ITEM('',(#314),#321);
#314=PRESENTATION_STYLE_ASSIGNMENT((#315));
#315=SURFACE_STYLE_USAGE(.BOTH.,#316);
#316=SURFACE_SIDE_STYLE('',(#317));
#317=SURFACE_STYLE_FILL_AREA(#318);
#318=FILL_AREA_STYLE('',(#319));
#319=FILL_AREA_STYLE_COLOUR('',#320);
#320=COLOUR_RGB('',0.917647058823529,0.917647058823529,0.917647058823529);
#321=MANIFOLD_SOLID_BREP('IKEA Samla 22l Partition_down V01',#312);
#322=SHAPE_DEFINITION_REPRESENTATION(#530,#323);
#323=SHAPE_REPRESENTATION('IKEA Samla 22l Partition_down V01',(#324),#525);
#324=AXIS2_PLACEMENT_3D('',#436,#350,#351);
#325=AXIS2_PLACEMENT_3D('',#437,#352,#353);
#326=AXIS2_PLACEMENT_3D('',#446,#358,#359);
#327=AXIS2_PLACEMENT_3D('',#460,#367,#368);
#328=AXIS2_PLACEMENT_3D('',#461,#369,#370);
#329=AXIS2_PLACEMENT_3D('',#463,#371,#372);
#330=AXIS2_PLACEMENT_3D('',#466,#374,#375);
#331=AXIS2_PLACEMENT_3D('',#472,#379,#380);
#332=AXIS2_PLACEMENT_3D('',#473,#381,#382);
#333=AXIS2_PLACEMENT_3D('',#475,#383,#384);
#334=AXIS2_PLACEMENT_3D('',#478,#386,#387);
#335=AXIS2_PLACEMENT_3D('',#489,#394,#395);
#336=AXIS2_PLACEMENT_3D('',#491,#397,#398);
#337=AXIS2_PLACEMENT_3D('',#493,#400,#401);
#338=AXIS2_PLACEMENT_3D('',#496,#404,#405);
#339=AXIS2_PLACEMENT_3D('',#497,#406,#407);
#340=AXIS2_PLACEMENT_3D('',#502,#409,#410);
#341=AXIS2_PLACEMENT_3D('',#505,#412,#413);
#342=AXIS2_PLACEMENT_3D('',#511,#417,#418);
#343=AXIS2_PLACEMENT_3D('',#514,#420,#421);
#344=AXIS2_PLACEMENT_3D('',#515,#422,#423);
#345=AXIS2_PLACEMENT_3D('',#519,#426,#427);
#346=AXIS2_PLACEMENT_3D('',#520,#428,#429);
#347=AXIS2_PLACEMENT_3D('',#521,#430,#431);
#348=AXIS2_PLACEMENT_3D('',#522,#432,#433);
#349=AXIS2_PLACEMENT_3D('',#523,#434,#435);
#350=DIRECTION('',(0.,0.,1.));
#351=DIRECTION('',(1.,0.,0.));
#352=DIRECTION('',(0.,0.,-1.));
#353=DIRECTION('',(-1.,0.,0.));
#354=DIRECTION('',(1.,0.,0.));
#355=DIRECTION('',(0.,-1.,0.));
#356=DIRECTION('',(1.,0.,0.));
#357=DIRECTION('',(0.,1.,0.));
#358=DIRECTION('',(0.,-0.997564050259824,-0.0697564737441251));
#359=DIRECTION('',(0.,0.0697564737441252,-0.997564050259824));
#360=DIRECTION('',(0.,0.0697564737441252,-0.997564050259824));
#361=DIRECTION('',(-0.706243967529309,-0.0493853891036606,0.70624396752931));
#362=DIRECTION('',(1.,0.,0.));
#363=DIRECTION('',(0.,0.0697564737441252,-0.997564050259824));
#364=DIRECTION('',(0.706243967529309,-0.0493853891036606,0.70624396752931));
#365=DIRECTION('',(0.,0.0697564737441252,-0.997564050259824));
#366=DIRECTION('',(1.,0.,0.));
#367=DIRECTION('',(1.,0.,0.));
#368=DIRECTION('',(0.,0.,-1.));
#369=DIRECTION('',(1.,0.,0.));
#370=DIRECTION('',(0.,0.,-1.));
#371=DIRECTION('',(1.,0.,0.));
#372=DIRECTION('',(0.,0.,-1.));
#373=DIRECTION('',(1.,0.,0.));
#374=DIRECTION('',(0.,0.,-1.));
#375=DIRECTION('',(-1.,0.,0.));
#376=DIRECTION('',(0.,1.,0.));
#377=DIRECTION('',(0.,1.,0.));
#378=DIRECTION('',(1.,0.,0.));
#379=DIRECTION('',(1.,0.,0.));
#380=DIRECTION('',(0.,0.,-1.));
#381=DIRECTION('',(1.,0.,0.));
#382=DIRECTION('',(0.,0.,-1.));
#383=DIRECTION('',(1.,0.,0.));
#384=DIRECTION('',(0.,0.,-1.));
#385=DIRECTION('',(1.,0.,0.));
#386=DIRECTION('',(0.,-0.997564050259824,0.0697564737441251));
#387=DIRECTION('',(0.,-0.0697564737441252,-0.997564050259824));
#388=DIRECTION('',(1.,0.,0.));
#389=DIRECTION('',(0.706243967529309,-0.0493853891036606,-0.70624396752931));
#390=DIRECTION('',(0.,-0.0697564737441252,-0.997564050259824));
#391=DIRECTION('',(0.,-0.0697564737441252,-0.997564050259824));
#392=DIRECTION('',(-0.706243967529309,-0.0493853891036606,-0.70624396752931));
#393=DIRECTION('',(0.,-0.0697564737441252,-0.997564050259824));
#394=DIRECTION('',(1.,0.,0.));
#395=DIRECTION('',(0.,1.,0.));
#396=DIRECTION('',(0.,1.,0.));
#397=DIRECTION('',(1.,0.,0.));
#398=DIRECTION('',(0.,1.,0.));
#399=DIRECTION('',(0.,-1.,0.));
#400=DIRECTION('',(0.,0.,-1.));
#401=DIRECTION('',(-1.,0.,0.));
#402=DIRECTION('',(0.,1.,0.));
#403=DIRECTION('',(0.,1.,0.));
#404=DIRECTION('',(1.,0.,0.));
#405=DIRECTION('',(0.,1.,0.));
#406=DIRECTION('',(-1.,0.,0.));
#407=DIRECTION('',(0.,0.,1.));
#408=DIRECTION('',(0.,-1.,0.));
#409=DIRECTION('',(1.,0.,0.));
#410=DIRECTION('',(0.,0.,1.));
#411=DIRECTION('',(0.,-1.,0.));
#412=DIRECTION('',(0.,0.,1.));
#413=DIRECTION('',(1.,0.,0.));
#414=DIRECTION('',(1.,0.,0.));
#415=DIRECTION('',(0.,-1.,0.));
#416=DIRECTION('',(1.,0.,0.));
#417=DIRECTION('',(1.,0.,0.));
#418=DIRECTION('',(0.,0.,-1.));
#419=DIRECTION('',(1.,0.,0.));
#420=DIRECTION('',(-1.,0.,0.));
#421=DIRECTION('',(0.,0.,1.));
#422=DIRECTION('',(0.,0.,1.));
#423=DIRECTION('',(1.,0.,0.));
#424=DIRECTION('',(1.,0.,0.));
#425=DIRECTION('',(0.,-1.,0.));
#426=DIRECTION('',(1.,0.,0.));
#427=DIRECTION('',(0.,0.,-1.));
#428=DIRECTION('',(1.,0.,0.));
#429=DIRECTION('',(0.,0.,1.));
#430=DIRECTION('',(-1.,0.,0.));
#431=DIRECTION('',(0.,-1.,0.));
#432=DIRECTION('',(0.707106781186548,0.,0.707106781186547));
#433=DIRECTION('',(0.,-1.,0.));
#434=DIRECTION('',(0.707106781186548,0.,-0.707106781186547));
#435=DIRECTION('',(0.,1.,0.));
#436=CARTESIAN_POINT('',(0.,0.,0.));
#437=CARTESIAN_POINT('',(-0.0015,0.,0.0758));
#438=CARTESIAN_POINT('',(-0.0015,0.109232626489326,0.0758));
#439=CARTESIAN_POINT('',(-0.001,0.109232626489326,0.0758));
#440=CARTESIAN_POINT('',(0.,0.109232626489326,0.0758));
#441=CARTESIAN_POINT('',(-0.001,0.,0.0758));
#442=CARTESIAN_POINT('',(-0.001,-0.109232626489326,0.0758));
#443=CARTESIAN_POINT('',(-0.0015,-0.109232626489326,0.0758));
#444=CARTESIAN_POINT('',(0.,-0.109232626489326,0.0758));
#445=CARTESIAN_POINT('',(0.,0.,0.0758));
#446=CARTESIAN_POINT('',(-0.0015,-0.112706598835515,0.125480119107894));
#447=CARTESIAN_POINT('',(0.0015,-0.112706598835515,0.125480119107894));
#448=CARTESIAN_POINT('',(0.0015,-0.110945833381942,0.1003));
#449=CARTESIAN_POINT('',(0.0015,-0.104817481641242,0.0126604870525117));
#450=CARTESIAN_POINT('',(-0.0126171072849194,-0.111932997688241,0.114417107284919));
#451=CARTESIAN_POINT('',(0.001,-0.110980796787914,0.1008));
#452=CARTESIAN_POINT('',(0.,-0.110980796787914,0.1008));
#453=CARTESIAN_POINT('',(0.,-0.110980796787914,0.1008));
#454=CARTESIAN_POINT('',(0.,-0.112706598835515,0.125480119107894));
#455=CARTESIAN_POINT('',(0.0236512521181163,-0.110956409960361,0.100451252118116));
#456=CARTESIAN_POINT('',(-0.0015,-0.109197663083354,0.0753));
#457=CARTESIAN_POINT('',(-0.0015,-0.112706598835515,0.125480119107894));
#458=CARTESIAN_POINT('',(-0.0015,-0.104817481641242,0.0126604870525117));
#459=CARTESIAN_POINT('',(-0.0015,-0.104817481641242,0.0126604870525117));
#460=CARTESIAN_POINT('',(-0.0015,-0.102822353540722,0.0128));
#461=CARTESIAN_POINT('',(0.0015,-0.102822353540722,0.0128));
#462=CARTESIAN_POINT('',(0.0015,-0.102822353540722,0.0108));
#463=CARTESIAN_POINT('',(-0.0015,-0.102822353540722,0.0128));
#464=CARTESIAN_POINT('',(-0.0015,-0.102822353540722,0.0108));
#465=CARTESIAN_POINT('',(-0.0015,-0.102822353540722,0.0108));
#466=CARTESIAN_POINT('',(-0.0015,-1.38777878078145E-17,0.0108));
#467=CARTESIAN_POINT('',(0.0015,-1.38777878078145E-17,0.0108));
#468=CARTESIAN_POINT('',(0.0015,0.102822353540722,0.0108));
#469=CARTESIAN_POINT('',(-0.0015,-1.38777878078145E-17,0.0108));
#470=CARTESIAN_POINT('',(-0.0015,0.102822353540722,0.0108));
#471=CARTESIAN_POINT('',(-0.0015,0.102822353540722,0.0108));
#472=CARTESIAN_POINT('',(-0.0015,0.102822353540722,0.0128));
#473=CARTESIAN_POINT('',(0.0015,0.102822353540722,0.0128));
#474=CARTESIAN_POINT('',(0.0015,0.104817481641242,0.0126604870525117));
#475=CARTESIAN_POINT('',(-0.0015,0.102822353540722,0.0128));
#476=CARTESIAN_POINT('',(-0.0015,0.104817481641242,0.0126604870525117));
#477=CARTESIAN_POINT('',(-0.0015,0.104817481641242,0.0126604870525117));
#478=CARTESIAN_POINT('',(-0.0015,0.112706598835515,0.125480119107894));
#479=CARTESIAN_POINT('',(0.,0.110980796787914,0.1008));
#480=CARTESIAN_POINT('',(0.,0.110980796787914,0.1008));
#481=CARTESIAN_POINT('',(0.001,0.110980796787914,0.1008));
#482=CARTESIAN_POINT('',(0.00487080300619099,0.110710123874029,0.096929196993809));
#483=CARTESIAN_POINT('',(0.0015,0.110945833381942,0.1003));
#484=CARTESIAN_POINT('',(0.0015,0.112706598835515,0.125480119107894));
#485=CARTESIAN_POINT('',(-0.0015,0.112706598835515,0.125480119107894));
#486=CARTESIAN_POINT('',(-0.0015,0.109197663083354,0.0753));
#487=CARTESIAN_POINT('',(-0.00530861063143952,0.108931339083963,0.0714913893685605));
#488=CARTESIAN_POINT('',(0.,0.112706598835515,0.125480119107894));
#489=CARTESIAN_POINT('',(-0.0015,1.11022302462516E-16,0.132874148081461));
#490=CARTESIAN_POINT('',(-0.0015,1.11022302462516E-16,0.0753));
#491=CARTESIAN_POINT('',(0.0015,1.11022302462516E-16,0.132874148081461));
#492=CARTESIAN_POINT('',(0.0015,-0.110980796787914,0.1003));
#493=CARTESIAN_POINT('',(0.,0.,0.1008));
#494=CARTESIAN_POINT('',(0.001,0.110980796787914,0.1008));
#495=CARTESIAN_POINT('',(0.,0.,0.1008));
#496=CARTESIAN_POINT('',(0.,1.11022302462516E-16,0.132874148081461));
#497=CARTESIAN_POINT('',(0.,0.015,0.0883));
#498=CARTESIAN_POINT('',(0.,0.015,0.0943));
#499=CARTESIAN_POINT('',(0.,0.015,0.0823));
#500=CARTESIAN_POINT('',(0.,1.04083408558608E-17,0.0943));
#501=CARTESIAN_POINT('',(0.,-0.015,0.0943));
#502=CARTESIAN_POINT('',(0.,-0.015,0.0883));
#503=CARTESIAN_POINT('',(0.,-0.015,0.0823));
#504=CARTESIAN_POINT('',(0.,8.67361737988404E-18,0.0823));
#505=CARTESIAN_POINT('',(-0.0005,1.04083408558608E-17,0.0943));
#506=CARTESIAN_POINT('',(-0.0005,0.015,0.0943));
#507=CARTESIAN_POINT('',(-0.0005,0.015,0.0943));
#508=CARTESIAN_POINT('',(-0.0005,1.04083408558608E-17,0.0943));
#509=CARTESIAN_POINT('',(-0.0005,-0.015,0.0943));
#510=CARTESIAN_POINT('',(-0.0005,-0.015,0.0943));
#511=CARTESIAN_POINT('',(-0.0005,0.015,0.0883));
#512=CARTESIAN_POINT('',(-0.0005,0.015,0.0823));
#513=CARTESIAN_POINT('',(-0.0005,0.015,0.0823));
#514=CARTESIAN_POINT('',(-0.0005,0.015,0.0883));
#515=CARTESIAN_POINT('',(-0.0005,8.67361737988404E-18,0.0823));
#516=CARTESIAN_POINT('',(-0.0005,-0.015,0.0823));
#517=CARTESIAN_POINT('',(-0.0005,-0.015,0.0823));
#518=CARTESIAN_POINT('',(-0.0005,8.67361737988404E-18,0.0823));
#519=CARTESIAN_POINT('',(-0.0005,-0.015,0.0883));
#520=CARTESIAN_POINT('',(-0.0005,-0.015,0.0883));
#521=CARTESIAN_POINT('',(-0.0005,0.,0.0883));
#522=CARTESIAN_POINT('',(0.001,0.,0.1008));
#523=CARTESIAN_POINT('',(-0.0015,1.11022302462516E-16,0.0753));
#524=MECHANICAL_DESIGN_GEOMETRIC_PRESENTATION_REPRESENTATION('',(#313),
#525);
#525=(
GEOMETRIC_REPRESENTATION_CONTEXT(3)
GLOBAL_UNCERTAINTY_ASSIGNED_CONTEXT((#526))
GLOBAL_UNIT_ASSIGNED_CONTEXT((#529,#528,#527))
REPRESENTATION_CONTEXT('IKEA Samla 22l Partition_down V01',
'TOP_LEVEL_ASSEMBLY_PART')
);
#526=UNCERTAINTY_MEASURE_WITH_UNIT(LENGTH_MEASURE(5.E-6),#529,
'DISTANCE_ACCURACY_VALUE','Maximum Tolerance applied to model');
#527=(
NAMED_UNIT(*)
SI_UNIT($,.STERADIAN.)
SOLID_ANGLE_UNIT()
);
#528=(
NAMED_UNIT(*)
PLANE_ANGLE_UNIT()
SI_UNIT($,.RADIAN.)
);
#529=(
LENGTH_UNIT()
NAMED_UNIT(*)
SI_UNIT($,.METRE.)
);
#530=PRODUCT_DEFINITION_SHAPE('','',#531);
#531=PRODUCT_DEFINITION('','',#533,#532);
#532=PRODUCT_DEFINITION_CONTEXT('',#539,'design');
#533=PRODUCT_DEFINITION_FORMATION_WITH_SPECIFIED_SOURCE('','',#535,
 .NOT_KNOWN.);
#534=PRODUCT_RELATED_PRODUCT_CATEGORY('','',(#535));
#535=PRODUCT('IKEA Samla 22l Partition_down V01',
'IKEA Samla 22l Partition_down V01','IKEA Samla 22l Partition_down V01',
(#537));
#536=PRODUCT_CATEGORY('','');
#537=PRODUCT_CONTEXT('',#539,'mechanical');
#538=APPLICATION_PROTOCOL_DEFINITION('international standard',
'ap242_managed_model_based_3d_engineering',2011,#539);
#539=APPLICATION_CONTEXT('managed model based 3d engineering');
ENDSEC;
END-ISO-10303-21;
