ISO-10303-21;
HEADER;
/* Generated by software containing ST-Developer
 * from STEP Tools, Inc. (www.steptools.com) 
 */
/* OPTION: using custom renumber hook */

FILE_DESCRIPTION(
/* description */ ('STEP AP242',
'CAx-IF Rec.Pracs.---Representation and Presentation of Product Manufa
cturing Information (PMI)---4.0---2014-10-13',
'CAx-IF Rec.Pracs.---3D Tessellated Geometry---0.4---2014-09-14','2;1'),

/* implementation_level */ '2;1');

FILE_NAME(
/* name */ '66c9c572cae3851e3285ae54',
/* time_stamp */ '2024-08-24T11:35:15Z',
/* author */ (''),
/* organization */ (''),
/* preprocessor_version */ 'ST-DEVELOPER v20',
/* originating_system */ '  ',
/* authorisation */ '  ');

FILE_SCHEMA (('AP242_MANAGED_MODEL_BASED_3D_ENGINEERING_MIM_LF { 1 0 10303 442 1 1 4 }'));
ENDSEC;

DATA;
#10=SHAPE_REPRESENTATION_RELATIONSHIP('','',#271,#11);
#11=ADVANCED_BREP_SHAPE_REPRESENTATION('',(#269),#453);
#12=PLANE('',#276);
#13=PLANE('',#280);
#14=PLANE('',#284);
#15=PLANE('',#288);
#16=PLANE('',#292);
#17=PLANE('',#296);
#18=PLANE('',#297);
#19=PLANE('',#298);
#20=LINE('',#382,#44);
#21=LINE('',#386,#45);
#22=LINE('',#388,#46);
#23=LINE('',#390,#47);
#24=LINE('',#392,#48);
#25=LINE('',#396,#49);
#26=LINE('',#400,#50);
#27=LINE('',#402,#51);
#28=LINE('',#404,#52);
#29=LINE('',#408,#53);
#30=LINE('',#412,#54);
#31=LINE('',#414,#55);
#32=LINE('',#416,#56);
#33=LINE('',#420,#57);
#34=LINE('',#424,#58);
#35=LINE('',#426,#59);
#36=LINE('',#428,#60);
#37=LINE('',#432,#61);
#38=LINE('',#436,#62);
#39=LINE('',#438,#63);
#40=LINE('',#440,#64);
#41=LINE('',#444,#65);
#42=LINE('',#448,#66);
#43=LINE('',#449,#67);
#44=VECTOR('',#305,1.);
#45=VECTOR('',#308,1.);
#46=VECTOR('',#311,1.);
#47=VECTOR('',#312,1.);
#48=VECTOR('',#313,1.);
#49=VECTOR('',#318,1.);
#50=VECTOR('',#323,1.);
#51=VECTOR('',#324,1.);
#52=VECTOR('',#325,1.);
#53=VECTOR('',#330,1.);
#54=VECTOR('',#335,1.);
#55=VECTOR('',#336,1.);
#56=VECTOR('',#337,1.);
#57=VECTOR('',#342,1.);
#58=VECTOR('',#347,1.);
#59=VECTOR('',#348,1.);
#60=VECTOR('',#349,1.);
#61=VECTOR('',#354,1.);
#62=VECTOR('',#359,1.);
#63=VECTOR('',#360,1.);
#64=VECTOR('',#361,1.);
#65=VECTOR('',#366,1.);
#66=VECTOR('',#371,1.);
#67=VECTOR('',#372,1.);
#68=ORIENTED_EDGE('',*,*,#140,.T.);
#69=ORIENTED_EDGE('',*,*,#141,.F.);
#70=ORIENTED_EDGE('',*,*,#142,.F.);
#71=ORIENTED_EDGE('',*,*,#143,.T.);
#72=ORIENTED_EDGE('',*,*,#144,.T.);
#73=ORIENTED_EDGE('',*,*,#145,.F.);
#74=ORIENTED_EDGE('',*,*,#146,.F.);
#75=ORIENTED_EDGE('',*,*,#141,.T.);
#76=ORIENTED_EDGE('',*,*,#147,.F.);
#77=ORIENTED_EDGE('',*,*,#148,.F.);
#78=ORIENTED_EDGE('',*,*,#149,.T.);
#79=ORIENTED_EDGE('',*,*,#145,.T.);
#80=ORIENTED_EDGE('',*,*,#150,.T.);
#81=ORIENTED_EDGE('',*,*,#151,.F.);
#82=ORIENTED_EDGE('',*,*,#152,.F.);
#83=ORIENTED_EDGE('',*,*,#148,.T.);
#84=ORIENTED_EDGE('',*,*,#153,.T.);
#85=ORIENTED_EDGE('',*,*,#154,.F.);
#86=ORIENTED_EDGE('',*,*,#155,.F.);
#87=ORIENTED_EDGE('',*,*,#151,.T.);
#88=ORIENTED_EDGE('',*,*,#156,.T.);
#89=ORIENTED_EDGE('',*,*,#157,.F.);
#90=ORIENTED_EDGE('',*,*,#158,.F.);
#91=ORIENTED_EDGE('',*,*,#154,.T.);
#92=ORIENTED_EDGE('',*,*,#159,.T.);
#93=ORIENTED_EDGE('',*,*,#160,.F.);
#94=ORIENTED_EDGE('',*,*,#161,.F.);
#95=ORIENTED_EDGE('',*,*,#157,.T.);
#96=ORIENTED_EDGE('',*,*,#162,.F.);
#97=ORIENTED_EDGE('',*,*,#163,.F.);
#98=ORIENTED_EDGE('',*,*,#164,.T.);
#99=ORIENTED_EDGE('',*,*,#160,.T.);
#100=ORIENTED_EDGE('',*,*,#165,.F.);
#101=ORIENTED_EDGE('',*,*,#166,.F.);
#102=ORIENTED_EDGE('',*,*,#167,.T.);
#103=ORIENTED_EDGE('',*,*,#163,.T.);
#104=ORIENTED_EDGE('',*,*,#168,.F.);
#105=ORIENTED_EDGE('',*,*,#169,.F.);
#106=ORIENTED_EDGE('',*,*,#170,.T.);
#107=ORIENTED_EDGE('',*,*,#166,.T.);
#108=ORIENTED_EDGE('',*,*,#171,.T.);
#109=ORIENTED_EDGE('',*,*,#172,.F.);
#110=ORIENTED_EDGE('',*,*,#173,.F.);
#111=ORIENTED_EDGE('',*,*,#169,.T.);
#112=ORIENTED_EDGE('',*,*,#174,.F.);
#113=ORIENTED_EDGE('',*,*,#143,.F.);
#114=ORIENTED_EDGE('',*,*,#175,.T.);
#115=ORIENTED_EDGE('',*,*,#172,.T.);
#116=ORIENTED_EDGE('',*,*,#142,.T.);
#117=ORIENTED_EDGE('',*,*,#146,.T.);
#118=ORIENTED_EDGE('',*,*,#149,.F.);
#119=ORIENTED_EDGE('',*,*,#152,.T.);
#120=ORIENTED_EDGE('',*,*,#155,.T.);
#121=ORIENTED_EDGE('',*,*,#158,.T.);
#122=ORIENTED_EDGE('',*,*,#161,.T.);
#123=ORIENTED_EDGE('',*,*,#164,.F.);
#124=ORIENTED_EDGE('',*,*,#167,.F.);
#125=ORIENTED_EDGE('',*,*,#170,.F.);
#126=ORIENTED_EDGE('',*,*,#173,.T.);
#127=ORIENTED_EDGE('',*,*,#175,.F.);
#128=ORIENTED_EDGE('',*,*,#140,.F.);
#129=ORIENTED_EDGE('',*,*,#174,.T.);
#130=ORIENTED_EDGE('',*,*,#171,.F.);
#131=ORIENTED_EDGE('',*,*,#168,.T.);
#132=ORIENTED_EDGE('',*,*,#165,.T.);
#133=ORIENTED_EDGE('',*,*,#162,.T.);
#134=ORIENTED_EDGE('',*,*,#159,.F.);
#135=ORIENTED_EDGE('',*,*,#156,.F.);
#136=ORIENTED_EDGE('',*,*,#153,.F.);
#137=ORIENTED_EDGE('',*,*,#150,.F.);
#138=ORIENTED_EDGE('',*,*,#147,.T.);
#139=ORIENTED_EDGE('',*,*,#144,.F.);
#140=EDGE_CURVE('',#176,#177,#200,.T.);
#141=EDGE_CURVE('',#178,#177,#20,.T.);
#142=EDGE_CURVE('',#179,#178,#201,.T.);
#143=EDGE_CURVE('',#179,#176,#21,.T.);
#144=EDGE_CURVE('',#177,#180,#22,.T.);
#145=EDGE_CURVE('',#181,#180,#23,.T.);
#146=EDGE_CURVE('',#178,#181,#24,.T.);
#147=EDGE_CURVE('',#182,#180,#202,.T.);
#148=EDGE_CURVE('',#183,#182,#25,.T.);
#149=EDGE_CURVE('',#183,#181,#203,.T.);
#150=EDGE_CURVE('',#182,#184,#26,.T.);
#151=EDGE_CURVE('',#185,#184,#27,.T.);
#152=EDGE_CURVE('',#183,#185,#28,.T.);
#153=EDGE_CURVE('',#184,#186,#204,.T.);
#154=EDGE_CURVE('',#187,#186,#29,.T.);
#155=EDGE_CURVE('',#185,#187,#205,.T.);
#156=EDGE_CURVE('',#186,#188,#30,.T.);
#157=EDGE_CURVE('',#189,#188,#31,.T.);
#158=EDGE_CURVE('',#187,#189,#32,.T.);
#159=EDGE_CURVE('',#188,#190,#206,.T.);
#160=EDGE_CURVE('',#191,#190,#33,.T.);
#161=EDGE_CURVE('',#189,#191,#207,.T.);
#162=EDGE_CURVE('',#192,#190,#34,.T.);
#163=EDGE_CURVE('',#193,#192,#35,.T.);
#164=EDGE_CURVE('',#193,#191,#36,.T.);
#165=EDGE_CURVE('',#194,#192,#208,.T.);
#166=EDGE_CURVE('',#195,#194,#37,.T.);
#167=EDGE_CURVE('',#195,#193,#209,.T.);
#168=EDGE_CURVE('',#196,#194,#38,.T.);
#169=EDGE_CURVE('',#197,#196,#39,.T.);
#170=EDGE_CURVE('',#197,#195,#40,.T.);
#171=EDGE_CURVE('',#196,#198,#210,.T.);
#172=EDGE_CURVE('',#199,#198,#41,.T.);
#173=EDGE_CURVE('',#197,#199,#211,.T.);
#174=EDGE_CURVE('',#176,#198,#42,.T.);
#175=EDGE_CURVE('',#179,#199,#43,.T.);
#176=VERTEX_POINT('',#380);
#177=VERTEX_POINT('',#381);
#178=VERTEX_POINT('',#383);
#179=VERTEX_POINT('',#385);
#180=VERTEX_POINT('',#389);
#181=VERTEX_POINT('',#391);
#182=VERTEX_POINT('',#395);
#183=VERTEX_POINT('',#397);
#184=VERTEX_POINT('',#401);
#185=VERTEX_POINT('',#403);
#186=VERTEX_POINT('',#407);
#187=VERTEX_POINT('',#409);
#188=VERTEX_POINT('',#413);
#189=VERTEX_POINT('',#415);
#190=VERTEX_POINT('',#419);
#191=VERTEX_POINT('',#421);
#192=VERTEX_POINT('',#425);
#193=VERTEX_POINT('',#427);
#194=VERTEX_POINT('',#431);
#195=VERTEX_POINT('',#433);
#196=VERTEX_POINT('',#437);
#197=VERTEX_POINT('',#439);
#198=VERTEX_POINT('',#443);
#199=VERTEX_POINT('',#445);
#200=CIRCLE('',#274,0.002);
#201=CIRCLE('',#275,0.002);
#202=CIRCLE('',#278,0.0055);
#203=CIRCLE('',#279,0.0055);
#204=CIRCLE('',#282,0.00199999999999996);
#205=CIRCLE('',#283,0.00199999999999996);
#206=CIRCLE('',#286,0.002);
#207=CIRCLE('',#287,0.002);
#208=CIRCLE('',#290,0.0055);
#209=CIRCLE('',#291,0.0055);
#210=CIRCLE('',#294,0.002);
#211=CIRCLE('',#295,0.002);
#212=EDGE_LOOP('',(#68,#69,#70,#71));
#213=EDGE_LOOP('',(#72,#73,#74,#75));
#214=EDGE_LOOP('',(#76,#77,#78,#79));
#215=EDGE_LOOP('',(#80,#81,#82,#83));
#216=EDGE_LOOP('',(#84,#85,#86,#87));
#217=EDGE_LOOP('',(#88,#89,#90,#91));
#218=EDGE_LOOP('',(#92,#93,#94,#95));
#219=EDGE_LOOP('',(#96,#97,#98,#99));
#220=EDGE_LOOP('',(#100,#101,#102,#103));
#221=EDGE_LOOP('',(#104,#105,#106,#107));
#222=EDGE_LOOP('',(#108,#109,#110,#111));
#223=EDGE_LOOP('',(#112,#113,#114,#115));
#224=EDGE_LOOP('',(#116,#117,#118,#119,#120,#121,#122,#123,#124,#125,#126,
#127));
#225=EDGE_LOOP('',(#128,#129,#130,#131,#132,#133,#134,#135,#136,#137,#138,
#139));
#226=FACE_BOUND('',#212,.T.);
#227=FACE_BOUND('',#213,.T.);
#228=FACE_BOUND('',#214,.T.);
#229=FACE_BOUND('',#215,.T.);
#230=FACE_BOUND('',#216,.T.);
#231=FACE_BOUND('',#217,.T.);
#232=FACE_BOUND('',#218,.T.);
#233=FACE_BOUND('',#219,.T.);
#234=FACE_BOUND('',#220,.T.);
#235=FACE_BOUND('',#221,.T.);
#236=FACE_BOUND('',#222,.T.);
#237=FACE_BOUND('',#223,.T.);
#238=FACE_BOUND('',#224,.T.);
#239=FACE_BOUND('',#225,.T.);
#240=CYLINDRICAL_SURFACE('',#273,0.002);
#241=CYLINDRICAL_SURFACE('',#277,0.0055);
#242=CYLINDRICAL_SURFACE('',#281,0.00199999999999996);
#243=CYLINDRICAL_SURFACE('',#285,0.002);
#244=CYLINDRICAL_SURFACE('',#289,0.0055);
#245=CYLINDRICAL_SURFACE('',#293,0.002);
#246=ADVANCED_FACE('',(#226),#240,.T.);
#247=ADVANCED_FACE('',(#227),#12,.F.);
#248=ADVANCED_FACE('',(#228),#241,.F.);
#249=ADVANCED_FACE('',(#229),#13,.F.);
#250=ADVANCED_FACE('',(#230),#242,.T.);
#251=ADVANCED_FACE('',(#231),#14,.F.);
#252=ADVANCED_FACE('',(#232),#243,.T.);
#253=ADVANCED_FACE('',(#233),#15,.T.);
#254=ADVANCED_FACE('',(#234),#244,.F.);
#255=ADVANCED_FACE('',(#235),#16,.T.);
#256=ADVANCED_FACE('',(#236),#245,.T.);
#257=ADVANCED_FACE('',(#237),#17,.T.);
#258=ADVANCED_FACE('',(#238),#18,.T.);
#259=ADVANCED_FACE('',(#239),#19,.F.);
#260=CLOSED_SHELL('',(#246,#247,#248,#249,#250,#251,#252,#253,#254,#255,
#256,#257,#258,#259));
#261=STYLED_ITEM('',(#262),#269);
#262=PRESENTATION_STYLE_ASSIGNMENT((#263));
#263=SURFACE_STYLE_USAGE(.BOTH.,#264);
#264=SURFACE_SIDE_STYLE('',(#265));
#265=SURFACE_STYLE_FILL_AREA(#266);
#266=FILL_AREA_STYLE('',(#267));
#267=FILL_AREA_STYLE_COLOUR('',#268);
#268=COLOUR_RGB('',0.980392156862745,0.713725490196078,0.00392156862745098);
#269=MANIFOLD_SOLID_BREP('IKEA Samla 22l Partition V01',#260);
#270=SHAPE_DEFINITION_REPRESENTATION(#458,#271);
#271=SHAPE_REPRESENTATION('IKEA Samla 22l Partition V01',(#272),#453);
#272=AXIS2_PLACEMENT_3D('',#377,#299,#300);
#273=AXIS2_PLACEMENT_3D('',#378,#301,#302);
#274=AXIS2_PLACEMENT_3D('',#379,#303,#304);
#275=AXIS2_PLACEMENT_3D('',#384,#306,#307);
#276=AXIS2_PLACEMENT_3D('',#387,#309,#310);
#277=AXIS2_PLACEMENT_3D('',#393,#314,#315);
#278=AXIS2_PLACEMENT_3D('',#394,#316,#317);
#279=AXIS2_PLACEMENT_3D('',#398,#319,#320);
#280=AXIS2_PLACEMENT_3D('',#399,#321,#322);
#281=AXIS2_PLACEMENT_3D('',#405,#326,#327);
#282=AXIS2_PLACEMENT_3D('',#406,#328,#329);
#283=AXIS2_PLACEMENT_3D('',#410,#331,#332);
#284=AXIS2_PLACEMENT_3D('',#411,#333,#334);
#285=AXIS2_PLACEMENT_3D('',#417,#338,#339);
#286=AXIS2_PLACEMENT_3D('',#418,#340,#341);
#287=AXIS2_PLACEMENT_3D('',#422,#343,#344);
#288=AXIS2_PLACEMENT_3D('',#423,#345,#346);
#289=AXIS2_PLACEMENT_3D('',#429,#350,#351);
#290=AXIS2_PLACEMENT_3D('',#430,#352,#353);
#291=AXIS2_PLACEMENT_3D('',#434,#355,#356);
#292=AXIS2_PLACEMENT_3D('',#435,#357,#358);
#293=AXIS2_PLACEMENT_3D('',#441,#362,#363);
#294=AXIS2_PLACEMENT_3D('',#442,#364,#365);
#295=AXIS2_PLACEMENT_3D('',#446,#367,#368);
#296=AXIS2_PLACEMENT_3D('',#447,#369,#370);
#297=AXIS2_PLACEMENT_3D('',#450,#373,#374);
#298=AXIS2_PLACEMENT_3D('',#451,#375,#376);
#299=DIRECTION('',(0.,0.,1.));
#300=DIRECTION('',(1.,0.,0.));
#301=DIRECTION('',(-1.,0.,0.));
#302=DIRECTION('',(0.,0.,1.));
#303=DIRECTION('',(1.,0.,0.));
#304=DIRECTION('',(0.,0.,-1.));
#305=DIRECTION('',(-1.,0.,0.));
#306=DIRECTION('',(1.,0.,0.));
#307=DIRECTION('',(0.,0.,-1.));
#308=DIRECTION('',(-1.,0.,0.));
#309=DIRECTION('',(0.,0.997564050259824,0.0697564737441243));
#310=DIRECTION('',(0.,-0.0697564737441243,0.997564050259824));
#311=DIRECTION('',(0.,0.0697564737441243,-0.997564050259824));
#312=DIRECTION('',(-1.,0.,0.));
#313=DIRECTION('',(0.,0.0697564737441243,-0.997564050259824));
#314=DIRECTION('',(-1.,0.,0.));
#315=DIRECTION('',(0.,0.,1.));
#316=DIRECTION('',(1.,0.,0.));
#317=DIRECTION('',(0.,0.,-1.));
#318=DIRECTION('',(-1.,0.,0.));
#319=DIRECTION('',(1.,0.,0.));
#320=DIRECTION('',(0.,0.,-1.));
#321=DIRECTION('',(0.,0.997564050259824,0.0697564737441251));
#322=DIRECTION('',(0.,-0.0697564737441252,0.997564050259824));
#323=DIRECTION('',(0.,0.0697564737441252,-0.997564050259824));
#324=DIRECTION('',(-1.,0.,0.));
#325=DIRECTION('',(0.,0.0697564737441252,-0.997564050259824));
#326=DIRECTION('',(-1.,0.,0.));
#327=DIRECTION('',(0.,0.,1.));
#328=DIRECTION('',(1.,0.,0.));
#329=DIRECTION('',(0.,0.,-1.));
#330=DIRECTION('',(-1.,0.,0.));
#331=DIRECTION('',(1.,0.,0.));
#332=DIRECTION('',(0.,0.,-1.));
#333=DIRECTION('',(0.,0.,1.));
#334=DIRECTION('',(1.,0.,0.));
#335=DIRECTION('',(0.,1.,0.));
#336=DIRECTION('',(-1.,0.,0.));
#337=DIRECTION('',(0.,1.,0.));
#338=DIRECTION('',(-1.,0.,0.));
#339=DIRECTION('',(0.,0.,1.));
#340=DIRECTION('',(1.,0.,0.));
#341=DIRECTION('',(0.,0.,-1.));
#342=DIRECTION('',(-1.,0.,0.));
#343=DIRECTION('',(1.,0.,0.));
#344=DIRECTION('',(0.,0.,-1.));
#345=DIRECTION('',(0.,0.997564050259824,-0.0697564737441251));
#346=DIRECTION('',(0.,0.0697564737441252,0.997564050259824));
#347=DIRECTION('',(0.,-0.0697564737441252,-0.997564050259824));
#348=DIRECTION('',(-1.,0.,0.));
#349=DIRECTION('',(0.,-0.0697564737441252,-0.997564050259824));
#350=DIRECTION('',(-1.,0.,0.));
#351=DIRECTION('',(0.,0.,1.));
#352=DIRECTION('',(1.,0.,0.));
#353=DIRECTION('',(0.,0.,-1.));
#354=DIRECTION('',(-1.,0.,0.));
#355=DIRECTION('',(1.,0.,0.));
#356=DIRECTION('',(0.,0.,-1.));
#357=DIRECTION('',(0.,0.997564050259824,-0.0697564737441256));
#358=DIRECTION('',(0.,0.0697564737441256,0.997564050259824));
#359=DIRECTION('',(0.,-0.0697564737441256,-0.997564050259824));
#360=DIRECTION('',(-1.,0.,0.));
#361=DIRECTION('',(0.,-0.0697564737441256,-0.997564050259824));
#362=DIRECTION('',(-1.,0.,0.));
#363=DIRECTION('',(0.,0.,1.));
#364=DIRECTION('',(1.,0.,0.));
#365=DIRECTION('',(0.,0.,-1.));
#366=DIRECTION('',(-1.,0.,0.));
#367=DIRECTION('',(1.,0.,0.));
#368=DIRECTION('',(0.,0.,-1.));
#369=DIRECTION('',(0.,4.52699614539096E-16,1.));
#370=DIRECTION('',(0.,-1.,4.52699614539096E-16));
#371=DIRECTION('',(0.,1.,-4.52699614539096E-16));
#372=DIRECTION('',(0.,1.,-4.52699614539096E-16));
#373=DIRECTION('',(1.,0.,0.));
#374=DIRECTION('',(0.,1.,0.));
#375=DIRECTION('',(1.,0.,0.));
#376=DIRECTION('',(0.,1.,0.));
#377=CARTESIAN_POINT('',(0.,0.,0.));
#378=CARTESIAN_POINT('',(0.0015,-0.122622483979305,0.252948296162923));
#379=CARTESIAN_POINT('',(-0.0015,-0.122622483979305,0.252948296162923));
#380=CARTESIAN_POINT('',(-0.0015,-0.122622483979305,0.254948296162923));
#381=CARTESIAN_POINT('',(-0.0015,-0.124617612079824,0.252808783215434));
#382=CARTESIAN_POINT('',(0.0015,-0.124617612079824,0.252808783215434));
#383=CARTESIAN_POINT('',(0.0015,-0.124617612079824,0.252808783215434));
#384=CARTESIAN_POINT('',(0.0015,-0.122622483979305,0.252948296162923));
#385=CARTESIAN_POINT('',(0.0015,-0.122622483979305,0.254948296162923));
#386=CARTESIAN_POINT('',(0.0015,-0.122622483979305,0.254948296162923));
#387=CARTESIAN_POINT('',(0.0015,-0.124273877897124,0.247893155387619));
#388=CARTESIAN_POINT('',(-0.0015,-0.124273877897124,0.247893155387619));
#389=CARTESIAN_POINT('',(-0.0015,-0.123930143714424,0.242977527559805));
#390=CARTESIAN_POINT('',(0.0015,-0.123930143714424,0.242977527559805));
#391=CARTESIAN_POINT('',(0.0015,-0.123930143714424,0.242977527559805));
#392=CARTESIAN_POINT('',(0.0015,-0.124273877897124,0.247893155387619));
#393=CARTESIAN_POINT('',(0.0015,-0.126082318306216,0.237916090557683));
#394=CARTESIAN_POINT('',(-0.0015,-0.126082318306216,0.237916090557683));
#395=CARTESIAN_POINT('',(-0.0015,-0.120595716029787,0.238299751163277));
#396=CARTESIAN_POINT('',(0.0015,-0.120595716029787,0.238299751163277));
#397=CARTESIAN_POINT('',(0.0015,-0.120595716029787,0.238299751163277));
#398=CARTESIAN_POINT('',(0.0015,-0.126082318306216,0.237916090557683));
#399=CARTESIAN_POINT('',(0.0015,-0.112706598835515,0.125480119107894));
#400=CARTESIAN_POINT('',(-0.0015,-0.112706598835515,0.125480119107894));
#401=CARTESIAN_POINT('',(-0.0015,-0.104817481641242,0.0126604870525117));
#402=CARTESIAN_POINT('',(0.0015,-0.104817481641242,0.0126604870525117));
#403=CARTESIAN_POINT('',(0.0015,-0.104817481641242,0.0126604870525117));
#404=CARTESIAN_POINT('',(0.0015,-0.112706598835515,0.125480119107894));
#405=CARTESIAN_POINT('',(0.0015,-0.102822353540722,0.0128));
#406=CARTESIAN_POINT('',(-0.0015,-0.102822353540722,0.0128));
#407=CARTESIAN_POINT('',(-0.0015,-0.102822353540722,0.0108));
#408=CARTESIAN_POINT('',(0.0015,-0.102822353540722,0.0108));
#409=CARTESIAN_POINT('',(0.0015,-0.102822353540722,0.0108));
#410=CARTESIAN_POINT('',(0.0015,-0.102822353540722,0.0128));
#411=CARTESIAN_POINT('',(0.0015,-1.38777878078145E-17,0.0108));
#412=CARTESIAN_POINT('',(-0.0015,-1.38777878078145E-17,0.0108));
#413=CARTESIAN_POINT('',(-0.0015,0.102822353540722,0.0108));
#414=CARTESIAN_POINT('',(0.0015,0.102822353540722,0.0108));
#415=CARTESIAN_POINT('',(0.0015,0.102822353540722,0.0108));
#416=CARTESIAN_POINT('',(0.0015,-1.38777878078145E-17,0.0108));
#417=CARTESIAN_POINT('',(0.0015,0.102822353540722,0.0128));
#418=CARTESIAN_POINT('',(-0.0015,0.102822353540722,0.0128));
#419=CARTESIAN_POINT('',(-0.0015,0.104817481641242,0.0126604870525117));
#420=CARTESIAN_POINT('',(0.0015,0.104817481641242,0.0126604870525117));
#421=CARTESIAN_POINT('',(0.0015,0.104817481641242,0.0126604870525117));
#422=CARTESIAN_POINT('',(0.0015,0.102822353540722,0.0128));
#423=CARTESIAN_POINT('',(0.0015,0.112706598835515,0.125480119107894));
#424=CARTESIAN_POINT('',(-0.0015,0.112706598835515,0.125480119107894));
#425=CARTESIAN_POINT('',(-0.0015,0.120595716029787,0.238299751163277));
#426=CARTESIAN_POINT('',(0.0015,0.120595716029787,0.238299751163277));
#427=CARTESIAN_POINT('',(0.0015,0.120595716029787,0.238299751163277));
#428=CARTESIAN_POINT('',(0.0015,0.112706598835515,0.125480119107894));
#429=CARTESIAN_POINT('',(0.0015,0.126082318306216,0.237916090557683));
#430=CARTESIAN_POINT('',(-0.0015,0.126082318306216,0.237916090557683));
#431=CARTESIAN_POINT('',(-0.0015,0.123930143714424,0.242977527559805));
#432=CARTESIAN_POINT('',(0.0015,0.123930143714424,0.242977527559805));
#433=CARTESIAN_POINT('',(0.0015,0.123930143714424,0.242977527559805));
#434=CARTESIAN_POINT('',(0.0015,0.126082318306216,0.237916090557683));
#435=CARTESIAN_POINT('',(0.0015,0.124273877897124,0.247893155387619));
#436=CARTESIAN_POINT('',(-0.0015,0.124273877897124,0.247893155387619));
#437=CARTESIAN_POINT('',(-0.0015,0.124617612079824,0.252808783215434));
#438=CARTESIAN_POINT('',(0.0015,0.124617612079824,0.252808783215434));
#439=CARTESIAN_POINT('',(0.0015,0.124617612079824,0.252808783215434));
#440=CARTESIAN_POINT('',(0.0015,0.124273877897124,0.247893155387619));
#441=CARTESIAN_POINT('',(0.0015,0.122622483979305,0.252948296162923));
#442=CARTESIAN_POINT('',(-0.0015,0.122622483979305,0.252948296162923));
#443=CARTESIAN_POINT('',(-0.0015,0.122622483979305,0.254948296162923));
#444=CARTESIAN_POINT('',(0.0015,0.122622483979305,0.254948296162923));
#445=CARTESIAN_POINT('',(0.0015,0.122622483979305,0.254948296162923));
#446=CARTESIAN_POINT('',(0.0015,0.122622483979305,0.252948296162923));
#447=CARTESIAN_POINT('',(0.0015,1.38777878078145E-16,0.254948296162923));
#448=CARTESIAN_POINT('',(-0.0015,1.38777878078145E-16,0.254948296162923));
#449=CARTESIAN_POINT('',(0.0015,1.38777878078145E-16,0.254948296162923));
#450=CARTESIAN_POINT('',(0.0015,-1.38777878078145E-16,0.141852339944581));
#451=CARTESIAN_POINT('',(-0.0015,-1.38777878078145E-16,0.141852339944581));
#452=MECHANICAL_DESIGN_GEOMETRIC_PRESENTATION_REPRESENTATION('',(#261),
#453);
#453=(
GEOMETRIC_REPRESENTATION_CONTEXT(3)
GLOBAL_UNCERTAINTY_ASSIGNED_CONTEXT((#454))
GLOBAL_UNIT_ASSIGNED_CONTEXT((#457,#456,#455))
REPRESENTATION_CONTEXT('IKEA Samla 22l Partition V01',
'TOP_LEVEL_ASSEMBLY_PART')
);
#454=UNCERTAINTY_MEASURE_WITH_UNIT(LENGTH_MEASURE(5.E-6),#457,
'DISTANCE_ACCURACY_VALUE','Maximum Tolerance applied to model');
#455=(
NAMED_UNIT(*)
SI_UNIT($,.STERADIAN.)
SOLID_ANGLE_UNIT()
);
#456=(
NAMED_UNIT(*)
PLANE_ANGLE_UNIT()
SI_UNIT($,.RADIAN.)
);
#457=(
LENGTH_UNIT()
NAMED_UNIT(*)
SI_UNIT($,.METRE.)
);
#458=PRODUCT_DEFINITION_SHAPE('','',#459);
#459=PRODUCT_DEFINITION('','',#461,#460);
#460=PRODUCT_DEFINITION_CONTEXT('',#467,'design');
#461=PRODUCT_DEFINITION_FORMATION_WITH_SPECIFIED_SOURCE('','',#463,
 .NOT_KNOWN.);
#462=PRODUCT_RELATED_PRODUCT_CATEGORY('','',(#463));
#463=PRODUCT('IKEA Samla 22l Partition V01',
'IKEA Samla 22l Partition V01','IKEA Samla 22l Partition V01',(#465));
#464=PRODUCT_CATEGORY('','');
#465=PRODUCT_CONTEXT('',#467,'mechanical');
#466=APPLICATION_PROTOCOL_DEFINITION('international standard',
'ap242_managed_model_based_3d_engineering',2011,#467);
#467=APPLICATION_CONTEXT('managed model based 3d engineering');
ENDSEC;
END-ISO-10303-21;
