ISO-10303-21;
HEADER;
/* Generated by software containing ST-Developer
 * from STEP Tools, Inc. (www.steptools.com) 
 */
/* OPTION: using custom renumber hook */

FILE_DESCRIPTION(
/* description */ ('STEP AP242',
'CAx-IF Rec.Pracs.---Representation and Presentation of Product Manufa
cturing Information (PMI)---4.0---2014-10-13',
'CAx-IF Rec.Pracs.---3D Tessellated Geometry---0.4---2014-09-14','2;1'),

/* implementation_level */ '2;1');

FILE_NAME(
/* name */ '66cde7447dbf35447a311204',
/* time_stamp */ '2024-08-27T14:48:37Z',
/* author */ (''),
/* organization */ (''),
/* preprocessor_version */ 'ST-DEVELOPER v20',
/* originating_system */ '  ',
/* authorisation */ '  ');

FILE_SCHEMA (('AP242_MANAGED_MODEL_BASED_3D_ENGINEERING_MIM_LF { 1 0 10303 442 1 1 4 }'));
ENDSEC;

DATA;
#10=SHAPE_REPRESENTATION_RELATIONSHIP('','',#403,#11);
#11=ADVANCED_BREP_SHAPE_REPRESENTATION('',(#401),#661);
#12=CYLINDRICAL_SURFACE('',#415,0.002);
#13=CYLINDRICAL_SURFACE('',#417,0.0055);
#14=CYLINDRICAL_SURFACE('',#420,0.0055);
#15=CYLINDRICAL_SURFACE('',#422,0.002);
#16=CYLINDRICAL_SURFACE('',#430,0.0062);
#17=CYLINDRICAL_SURFACE('',#433,0.0062);
#18=CIRCLE('',#406,0.0055);
#19=CIRCLE('',#407,0.002);
#20=CIRCLE('',#408,0.002);
#21=CIRCLE('',#409,0.0055);
#22=CIRCLE('',#411,0.0055);
#23=CIRCLE('',#412,0.002);
#24=CIRCLE('',#413,0.002);
#25=CIRCLE('',#414,0.0055);
#26=CIRCLE('',#427,0.0062);
#27=CIRCLE('',#428,0.0062);
#28=CIRCLE('',#431,0.0062);
#29=CIRCLE('',#434,0.0062);
#30=ORIENTED_EDGE('',*,*,#138,.T.);
#31=ORIENTED_EDGE('',*,*,#139,.T.);
#32=ORIENTED_EDGE('',*,*,#140,.F.);
#33=ORIENTED_EDGE('',*,*,#141,.F.);
#34=ORIENTED_EDGE('',*,*,#142,.F.);
#35=ORIENTED_EDGE('',*,*,#143,.T.);
#36=ORIENTED_EDGE('',*,*,#144,.F.);
#37=ORIENTED_EDGE('',*,*,#145,.T.);
#38=ORIENTED_EDGE('',*,*,#146,.T.);
#39=ORIENTED_EDGE('',*,*,#147,.F.);
#40=ORIENTED_EDGE('',*,*,#148,.T.);
#41=ORIENTED_EDGE('',*,*,#149,.T.);
#42=ORIENTED_EDGE('',*,*,#150,.F.);
#43=ORIENTED_EDGE('',*,*,#151,.T.);
#44=ORIENTED_EDGE('',*,*,#152,.F.);
#45=ORIENTED_EDGE('',*,*,#153,.F.);
#46=ORIENTED_EDGE('',*,*,#154,.T.);
#47=ORIENTED_EDGE('',*,*,#155,.F.);
#48=ORIENTED_EDGE('',*,*,#156,.T.);
#49=ORIENTED_EDGE('',*,*,#157,.T.);
#50=ORIENTED_EDGE('',*,*,#153,.T.);
#51=ORIENTED_EDGE('',*,*,#158,.F.);
#52=ORIENTED_EDGE('',*,*,#145,.F.);
#53=ORIENTED_EDGE('',*,*,#159,.T.);
#54=ORIENTED_EDGE('',*,*,#152,.T.);
#55=ORIENTED_EDGE('',*,*,#160,.F.);
#56=ORIENTED_EDGE('',*,*,#146,.F.);
#57=ORIENTED_EDGE('',*,*,#158,.T.);
#58=ORIENTED_EDGE('',*,*,#151,.F.);
#59=ORIENTED_EDGE('',*,*,#161,.F.);
#60=ORIENTED_EDGE('',*,*,#147,.T.);
#61=ORIENTED_EDGE('',*,*,#160,.T.);
#62=ORIENTED_EDGE('',*,*,#162,.T.);
#63=ORIENTED_EDGE('',*,*,#163,.T.);
#64=ORIENTED_EDGE('',*,*,#138,.F.);
#65=ORIENTED_EDGE('',*,*,#161,.T.);
#66=ORIENTED_EDGE('',*,*,#150,.T.);
#67=ORIENTED_EDGE('',*,*,#164,.T.);
#68=ORIENTED_EDGE('',*,*,#165,.T.);
#69=ORIENTED_EDGE('',*,*,#166,.F.);
#70=ORIENTED_EDGE('',*,*,#140,.T.);
#71=ORIENTED_EDGE('',*,*,#167,.T.);
#72=ORIENTED_EDGE('',*,*,#168,.F.);
#73=ORIENTED_EDGE('',*,*,#169,.T.);
#74=ORIENTED_EDGE('',*,*,#170,.F.);
#75=ORIENTED_EDGE('',*,*,#171,.T.);
#76=ORIENTED_EDGE('',*,*,#148,.F.);
#77=ORIENTED_EDGE('',*,*,#172,.F.);
#78=ORIENTED_EDGE('',*,*,#157,.F.);
#79=ORIENTED_EDGE('',*,*,#173,.F.);
#80=ORIENTED_EDGE('',*,*,#141,.T.);
#81=ORIENTED_EDGE('',*,*,#172,.T.);
#82=ORIENTED_EDGE('',*,*,#156,.F.);
#83=ORIENTED_EDGE('',*,*,#174,.F.);
#84=ORIENTED_EDGE('',*,*,#142,.T.);
#85=ORIENTED_EDGE('',*,*,#173,.T.);
#86=ORIENTED_EDGE('',*,*,#155,.T.);
#87=ORIENTED_EDGE('',*,*,#175,.F.);
#88=ORIENTED_EDGE('',*,*,#143,.F.);
#89=ORIENTED_EDGE('',*,*,#174,.T.);
#90=ORIENTED_EDGE('',*,*,#154,.F.);
#91=ORIENTED_EDGE('',*,*,#159,.F.);
#92=ORIENTED_EDGE('',*,*,#144,.T.);
#93=ORIENTED_EDGE('',*,*,#175,.T.);
#94=ORIENTED_EDGE('',*,*,#165,.F.);
#95=ORIENTED_EDGE('',*,*,#176,.T.);
#96=ORIENTED_EDGE('',*,*,#170,.T.);
#97=ORIENTED_EDGE('',*,*,#177,.F.);
#98=ORIENTED_EDGE('',*,*,#168,.T.);
#99=ORIENTED_EDGE('',*,*,#178,.T.);
#100=ORIENTED_EDGE('',*,*,#162,.F.);
#101=ORIENTED_EDGE('',*,*,#179,.T.);
#102=ORIENTED_EDGE('',*,*,#180,.T.);
#103=ORIENTED_EDGE('',*,*,#181,.T.);
#104=ORIENTED_EDGE('',*,*,#182,.F.);
#105=ORIENTED_EDGE('',*,*,#183,.F.);
#106=ORIENTED_EDGE('',*,*,#179,.F.);
#107=ORIENTED_EDGE('',*,*,#166,.T.);
#108=ORIENTED_EDGE('',*,*,#177,.T.);
#109=ORIENTED_EDGE('',*,*,#169,.F.);
#110=ORIENTED_EDGE('',*,*,#183,.T.);
#111=ORIENTED_EDGE('',*,*,#184,.F.);
#112=ORIENTED_EDGE('',*,*,#185,.F.);
#113=ORIENTED_EDGE('',*,*,#186,.T.);
#114=ORIENTED_EDGE('',*,*,#180,.F.);
#115=ORIENTED_EDGE('',*,*,#186,.F.);
#116=ORIENTED_EDGE('',*,*,#187,.T.);
#117=ORIENTED_EDGE('',*,*,#188,.T.);
#118=ORIENTED_EDGE('',*,*,#181,.F.);
#119=ORIENTED_EDGE('',*,*,#188,.F.);
#120=ORIENTED_EDGE('',*,*,#189,.T.);
#121=ORIENTED_EDGE('',*,*,#190,.T.);
#122=ORIENTED_EDGE('',*,*,#182,.T.);
#123=ORIENTED_EDGE('',*,*,#190,.F.);
#124=ORIENTED_EDGE('',*,*,#191,.F.);
#125=ORIENTED_EDGE('',*,*,#184,.T.);
#126=ORIENTED_EDGE('',*,*,#185,.T.);
#127=ORIENTED_EDGE('',*,*,#191,.T.);
#128=ORIENTED_EDGE('',*,*,#189,.F.);
#129=ORIENTED_EDGE('',*,*,#187,.F.);
#130=ORIENTED_EDGE('',*,*,#163,.F.);
#131=ORIENTED_EDGE('',*,*,#178,.F.);
#132=ORIENTED_EDGE('',*,*,#167,.F.);
#133=ORIENTED_EDGE('',*,*,#139,.F.);
#134=ORIENTED_EDGE('',*,*,#164,.F.);
#135=ORIENTED_EDGE('',*,*,#149,.F.);
#136=ORIENTED_EDGE('',*,*,#171,.F.);
#137=ORIENTED_EDGE('',*,*,#176,.F.);
#138=EDGE_CURVE('',#192,#193,#228,.T.);
#139=EDGE_CURVE('',#193,#194,#229,.T.);
#140=EDGE_CURVE('',#195,#194,#230,.T.);
#141=EDGE_CURVE('',#196,#195,#18,.T.);
#142=EDGE_CURVE('',#197,#196,#231,.T.);
#143=EDGE_CURVE('',#197,#198,#19,.T.);
#144=EDGE_CURVE('',#199,#198,#232,.T.);
#145=EDGE_CURVE('',#199,#200,#20,.T.);
#146=EDGE_CURVE('',#200,#201,#233,.T.);
#147=EDGE_CURVE('',#192,#201,#21,.T.);
#148=EDGE_CURVE('',#202,#203,#234,.T.);
#149=EDGE_CURVE('',#203,#204,#235,.T.);
#150=EDGE_CURVE('',#205,#204,#236,.T.);
#151=EDGE_CURVE('',#205,#206,#22,.T.);
#152=EDGE_CURVE('',#207,#206,#237,.T.);
#153=EDGE_CURVE('',#208,#207,#23,.T.);
#154=EDGE_CURVE('',#208,#209,#238,.T.);
#155=EDGE_CURVE('',#210,#209,#24,.T.);
#156=EDGE_CURVE('',#210,#211,#239,.T.);
#157=EDGE_CURVE('',#211,#202,#25,.T.);
#158=EDGE_CURVE('',#200,#207,#240,.T.);
#159=EDGE_CURVE('',#199,#208,#241,.T.);
#160=EDGE_CURVE('',#201,#206,#242,.T.);
#161=EDGE_CURVE('',#192,#205,#243,.T.);
#162=EDGE_CURVE('',#212,#213,#244,.T.);
#163=EDGE_CURVE('',#213,#193,#245,.F.);
#164=EDGE_CURVE('',#204,#214,#246,.T.);
#165=EDGE_CURVE('',#214,#215,#247,.T.);
#166=EDGE_CURVE('',#212,#215,#248,.T.);
#167=EDGE_CURVE('',#194,#216,#249,.F.);
#168=EDGE_CURVE('',#217,#216,#250,.T.);
#169=EDGE_CURVE('',#217,#218,#251,.T.);
#170=EDGE_CURVE('',#219,#218,#252,.T.);
#171=EDGE_CURVE('',#219,#203,#253,.T.);
#172=EDGE_CURVE('',#195,#202,#254,.T.);
#173=EDGE_CURVE('',#196,#211,#255,.T.);
#174=EDGE_CURVE('',#197,#210,#256,.T.);
#175=EDGE_CURVE('',#198,#209,#257,.T.);
#176=EDGE_CURVE('',#214,#219,#258,.T.);
#177=EDGE_CURVE('',#215,#218,#259,.T.);
#178=EDGE_CURVE('',#216,#213,#260,.T.);
#179=EDGE_CURVE('',#212,#217,#261,.T.);
#180=EDGE_CURVE('',#220,#221,#26,.F.);
#181=EDGE_CURVE('',#221,#222,#262,.T.);
#182=EDGE_CURVE('',#223,#222,#27,.T.);
#183=EDGE_CURVE('',#220,#223,#263,.T.);
#184=EDGE_CURVE('',#224,#223,#264,.T.);
#185=EDGE_CURVE('',#225,#224,#265,.T.);
#186=EDGE_CURVE('',#225,#220,#266,.T.);
#187=EDGE_CURVE('',#225,#226,#28,.T.);
#188=EDGE_CURVE('',#226,#221,#267,.T.);
#189=EDGE_CURVE('',#226,#227,#268,.T.);
#190=EDGE_CURVE('',#227,#222,#269,.T.);
#191=EDGE_CURVE('',#224,#227,#29,.F.);
#192=VERTEX_POINT('',#551);
#193=VERTEX_POINT('',#552);
#194=VERTEX_POINT('',#554);
#195=VERTEX_POINT('',#556);
#196=VERTEX_POINT('',#558);
#197=VERTEX_POINT('',#560);
#198=VERTEX_POINT('',#562);
#199=VERTEX_POINT('',#564);
#200=VERTEX_POINT('',#566);
#201=VERTEX_POINT('',#568);
#202=VERTEX_POINT('',#572);
#203=VERTEX_POINT('',#573);
#204=VERTEX_POINT('',#575);
#205=VERTEX_POINT('',#577);
#206=VERTEX_POINT('',#579);
#207=VERTEX_POINT('',#581);
#208=VERTEX_POINT('',#583);
#209=VERTEX_POINT('',#585);
#210=VERTEX_POINT('',#587);
#211=VERTEX_POINT('',#589);
#212=VERTEX_POINT('',#600);
#213=VERTEX_POINT('',#601);
#214=VERTEX_POINT('',#604);
#215=VERTEX_POINT('',#606);
#216=VERTEX_POINT('',#610);
#217=VERTEX_POINT('',#612);
#218=VERTEX_POINT('',#614);
#219=VERTEX_POINT('',#616);
#220=VERTEX_POINT('',#634);
#221=VERTEX_POINT('',#635);
#222=VERTEX_POINT('',#637);
#223=VERTEX_POINT('',#639);
#224=VERTEX_POINT('',#643);
#225=VERTEX_POINT('',#645);
#226=VERTEX_POINT('',#649);
#227=VERTEX_POINT('',#653);
#228=LINE('',#550,#270);
#229=LINE('',#553,#271);
#230=LINE('',#555,#272);
#231=LINE('',#559,#273);
#232=LINE('',#563,#274);
#233=LINE('',#567,#275);
#234=LINE('',#571,#276);
#235=LINE('',#574,#277);
#236=LINE('',#576,#278);
#237=LINE('',#580,#279);
#238=LINE('',#584,#280);
#239=LINE('',#588,#281);
#240=LINE('',#592,#282);
#241=LINE('',#593,#283);
#242=LINE('',#595,#284);
#243=LINE('',#597,#285);
#244=LINE('',#599,#286);
#245=LINE('',#602,#287);
#246=LINE('',#603,#288);
#247=LINE('',#605,#289);
#248=LINE('',#607,#290);
#249=LINE('',#609,#291);
#250=LINE('',#611,#292);
#251=LINE('',#613,#293);
#252=LINE('',#615,#294);
#253=LINE('',#617,#295);
#254=LINE('',#618,#296);
#255=LINE('',#620,#297);
#256=LINE('',#622,#298);
#257=LINE('',#624,#299);
#258=LINE('',#627,#300);
#259=LINE('',#628,#301);
#260=LINE('',#630,#302);
#261=LINE('',#631,#303);
#262=LINE('',#636,#304);
#263=LINE('',#640,#305);
#264=LINE('',#642,#306);
#265=LINE('',#644,#307);
#266=LINE('',#646,#308);
#267=LINE('',#650,#309);
#268=LINE('',#652,#310);
#269=LINE('',#654,#311);
#270=VECTOR('',#442,1.);
#271=VECTOR('',#443,1.);
#272=VECTOR('',#444,1.);
#273=VECTOR('',#447,1.);
#274=VECTOR('',#450,1.);
#275=VECTOR('',#453,1.);
#276=VECTOR('',#458,1.);
#277=VECTOR('',#459,1.);
#278=VECTOR('',#460,1.);
#279=VECTOR('',#463,1.);
#280=VECTOR('',#466,1.);
#281=VECTOR('',#469,1.);
#282=VECTOR('',#474,1.);
#283=VECTOR('',#475,1.);
#284=VECTOR('',#478,1.);
#285=VECTOR('',#481,1.);
#286=VECTOR('',#484,1.);
#287=VECTOR('',#485,1.);
#288=VECTOR('',#486,1.);
#289=VECTOR('',#487,1.);
#290=VECTOR('',#488,1.);
#291=VECTOR('',#491,1.);
#292=VECTOR('',#492,1.);
#293=VECTOR('',#493,1.);
#294=VECTOR('',#494,1.);
#295=VECTOR('',#495,1.);
#296=VECTOR('',#496,1.);
#297=VECTOR('',#499,1.);
#298=VECTOR('',#502,1.);
#299=VECTOR('',#505,1.);
#300=VECTOR('',#510,1.);
#301=VECTOR('',#511,1.);
#302=VECTOR('',#514,1.);
#303=VECTOR('',#515,1.);
#304=VECTOR('',#520,1.);
#305=VECTOR('',#523,1.);
#306=VECTOR('',#526,1.);
#307=VECTOR('',#527,1.);
#308=VECTOR('',#528,1.);
#309=VECTOR('',#533,1.);
#310=VECTOR('',#536,1.);
#311=VECTOR('',#537,1.);
#312=EDGE_LOOP('',(#30,#31,#32,#33,#34,#35,#36,#37,#38,#39));
#313=EDGE_LOOP('',(#40,#41,#42,#43,#44,#45,#46,#47,#48,#49));
#314=EDGE_LOOP('',(#50,#51,#52,#53));
#315=EDGE_LOOP('',(#54,#55,#56,#57));
#316=EDGE_LOOP('',(#58,#59,#60,#61));
#317=EDGE_LOOP('',(#62,#63,#64,#65,#66,#67,#68,#69));
#318=EDGE_LOOP('',(#70,#71,#72,#73,#74,#75,#76,#77));
#319=EDGE_LOOP('',(#78,#79,#80,#81));
#320=EDGE_LOOP('',(#82,#83,#84,#85));
#321=EDGE_LOOP('',(#86,#87,#88,#89));
#322=EDGE_LOOP('',(#90,#91,#92,#93));
#323=EDGE_LOOP('',(#94,#95,#96,#97));
#324=EDGE_LOOP('',(#98,#99,#100,#101));
#325=EDGE_LOOP('',(#102,#103,#104,#105));
#326=EDGE_LOOP('',(#106,#107,#108,#109));
#327=EDGE_LOOP('',(#110,#111,#112,#113));
#328=EDGE_LOOP('',(#114,#115,#116,#117));
#329=EDGE_LOOP('',(#118,#119,#120,#121));
#330=EDGE_LOOP('',(#122,#123,#124,#125));
#331=EDGE_LOOP('',(#126,#127,#128,#129));
#332=EDGE_LOOP('',(#130,#131,#132,#133));
#333=EDGE_LOOP('',(#134,#135,#136,#137));
#334=FACE_BOUND('',#312,.T.);
#335=FACE_BOUND('',#313,.T.);
#336=FACE_BOUND('',#314,.T.);
#337=FACE_BOUND('',#315,.T.);
#338=FACE_BOUND('',#316,.T.);
#339=FACE_BOUND('',#317,.T.);
#340=FACE_BOUND('',#318,.T.);
#341=FACE_BOUND('',#319,.T.);
#342=FACE_BOUND('',#320,.T.);
#343=FACE_BOUND('',#321,.T.);
#344=FACE_BOUND('',#322,.T.);
#345=FACE_BOUND('',#323,.T.);
#346=FACE_BOUND('',#324,.T.);
#347=FACE_BOUND('',#325,.T.);
#348=FACE_BOUND('',#326,.T.);
#349=FACE_BOUND('',#327,.T.);
#350=FACE_BOUND('',#328,.T.);
#351=FACE_BOUND('',#329,.T.);
#352=FACE_BOUND('',#330,.T.);
#353=FACE_BOUND('',#331,.T.);
#354=FACE_BOUND('',#332,.T.);
#355=FACE_BOUND('',#333,.T.);
#356=PLANE('',#405);
#357=PLANE('',#410);
#358=PLANE('',#416);
#359=PLANE('',#418);
#360=PLANE('',#419);
#361=PLANE('',#421);
#362=PLANE('',#423);
#363=PLANE('',#424);
#364=PLANE('',#425);
#365=PLANE('',#426);
#366=PLANE('',#429);
#367=PLANE('',#432);
#368=PLANE('',#435);
#369=PLANE('',#436);
#370=PLANE('',#437);
#371=ADVANCED_FACE('',(#334),#356,.T.);
#372=ADVANCED_FACE('',(#335),#357,.F.);
#373=ADVANCED_FACE('',(#336),#12,.T.);
#374=ADVANCED_FACE('',(#337),#358,.F.);
#375=ADVANCED_FACE('',(#338),#13,.F.);
#376=ADVANCED_FACE('',(#339),#359,.F.);
#377=ADVANCED_FACE('',(#340),#360,.T.);
#378=ADVANCED_FACE('',(#341),#14,.F.);
#379=ADVANCED_FACE('',(#342),#361,.T.);
#380=ADVANCED_FACE('',(#343),#15,.T.);
#381=ADVANCED_FACE('',(#344),#362,.T.);
#382=ADVANCED_FACE('',(#345),#363,.T.);
#383=ADVANCED_FACE('',(#346),#364,.T.);
#384=ADVANCED_FACE('',(#347,#348),#365,.T.);
#385=ADVANCED_FACE('',(#349),#366,.F.);
#386=ADVANCED_FACE('',(#350),#16,.F.);
#387=ADVANCED_FACE('',(#351),#367,.T.);
#388=ADVANCED_FACE('',(#352),#17,.F.);
#389=ADVANCED_FACE('',(#353),#368,.F.);
#390=ADVANCED_FACE('',(#354),#369,.F.);
#391=ADVANCED_FACE('',(#355),#370,.T.);
#392=CLOSED_SHELL('',(#371,#372,#373,#374,#375,#376,#377,#378,#379,#380,
#381,#382,#383,#384,#385,#386,#387,#388,#389,#390,#391));
#393=STYLED_ITEM('',(#394),#401);
#394=PRESENTATION_STYLE_ASSIGNMENT((#395));
#395=SURFACE_STYLE_USAGE(.BOTH.,#396);
#396=SURFACE_SIDE_STYLE('',(#397));
#397=SURFACE_STYLE_FILL_AREA(#398);
#398=FILL_AREA_STYLE('',(#399));
#399=FILL_AREA_STYLE_COLOUR('',#400);
#400=COLOUR_RGB('',0.980392156862745,0.713725490196078,0.00392156862745098);
#401=MANIFOLD_SOLID_BREP('IKEA Samla 22l Partition_up V01',#392);
#402=SHAPE_DEFINITION_REPRESENTATION(#666,#403);
#403=SHAPE_REPRESENTATION('IKEA Samla 22l Partition_up V01',(#404),#661);
#404=AXIS2_PLACEMENT_3D('',#548,#438,#439);
#405=AXIS2_PLACEMENT_3D('',#549,#440,#441);
#406=AXIS2_PLACEMENT_3D('',#557,#445,#446);
#407=AXIS2_PLACEMENT_3D('',#561,#448,#449);
#408=AXIS2_PLACEMENT_3D('',#565,#451,#452);
#409=AXIS2_PLACEMENT_3D('',#569,#454,#455);
#410=AXIS2_PLACEMENT_3D('',#570,#456,#457);
#411=AXIS2_PLACEMENT_3D('',#578,#461,#462);
#412=AXIS2_PLACEMENT_3D('',#582,#464,#465);
#413=AXIS2_PLACEMENT_3D('',#586,#467,#468);
#414=AXIS2_PLACEMENT_3D('',#590,#470,#471);
#415=AXIS2_PLACEMENT_3D('',#591,#472,#473);
#416=AXIS2_PLACEMENT_3D('',#594,#476,#477);
#417=AXIS2_PLACEMENT_3D('',#596,#479,#480);
#418=AXIS2_PLACEMENT_3D('',#598,#482,#483);
#419=AXIS2_PLACEMENT_3D('',#608,#489,#490);
#420=AXIS2_PLACEMENT_3D('',#619,#497,#498);
#421=AXIS2_PLACEMENT_3D('',#621,#500,#501);
#422=AXIS2_PLACEMENT_3D('',#623,#503,#504);
#423=AXIS2_PLACEMENT_3D('',#625,#506,#507);
#424=AXIS2_PLACEMENT_3D('',#626,#508,#509);
#425=AXIS2_PLACEMENT_3D('',#629,#512,#513);
#426=AXIS2_PLACEMENT_3D('',#632,#516,#517);
#427=AXIS2_PLACEMENT_3D('',#633,#518,#519);
#428=AXIS2_PLACEMENT_3D('',#638,#521,#522);
#429=AXIS2_PLACEMENT_3D('',#641,#524,#525);
#430=AXIS2_PLACEMENT_3D('',#647,#529,#530);
#431=AXIS2_PLACEMENT_3D('',#648,#531,#532);
#432=AXIS2_PLACEMENT_3D('',#651,#534,#535);
#433=AXIS2_PLACEMENT_3D('',#655,#538,#539);
#434=AXIS2_PLACEMENT_3D('',#656,#540,#541);
#435=AXIS2_PLACEMENT_3D('',#657,#542,#543);
#436=AXIS2_PLACEMENT_3D('',#658,#544,#545);
#437=AXIS2_PLACEMENT_3D('',#659,#546,#547);
#438=DIRECTION('',(0.,0.,1.));
#439=DIRECTION('',(1.,0.,0.));
#440=DIRECTION('',(1.,0.,0.));
#441=DIRECTION('',(0.,1.,0.));
#442=DIRECTION('',(0.,0.0697564737441252,-0.997564050259824));
#443=DIRECTION('',(0.,1.,0.));
#444=DIRECTION('',(0.,-0.0697564737441252,-0.997564050259824));
#445=DIRECTION('',(1.,0.,0.));
#446=DIRECTION('',(0.,0.,-1.));
#447=DIRECTION('',(0.,-0.0697564737441256,-0.997564050259824));
#448=DIRECTION('',(1.,0.,0.));
#449=DIRECTION('',(0.,0.,-1.));
#450=DIRECTION('',(0.,1.,-4.52699614539096E-16));
#451=DIRECTION('',(1.,0.,0.));
#452=DIRECTION('',(0.,0.,-1.));
#453=DIRECTION('',(0.,0.0697564737441243,-0.997564050259824));
#454=DIRECTION('',(1.,0.,0.));
#455=DIRECTION('',(0.,0.,-1.));
#456=DIRECTION('',(1.,0.,0.));
#457=DIRECTION('',(0.,1.,0.));
#458=DIRECTION('',(0.,-0.0697564737441252,-0.997564050259824));
#459=DIRECTION('',(0.,-1.,0.));
#460=DIRECTION('',(0.,0.0697564737441252,-0.997564050259824));
#461=DIRECTION('',(1.,0.,0.));
#462=DIRECTION('',(0.,0.,-1.));
#463=DIRECTION('',(0.,0.0697564737441243,-0.997564050259824));
#464=DIRECTION('',(1.,0.,0.));
#465=DIRECTION('',(0.,0.,-1.));
#466=DIRECTION('',(0.,1.,-4.52699614539096E-16));
#467=DIRECTION('',(1.,0.,0.));
#468=DIRECTION('',(0.,0.,-1.));
#469=DIRECTION('',(0.,-0.0697564737441256,-0.997564050259824));
#470=DIRECTION('',(1.,0.,0.));
#471=DIRECTION('',(0.,0.,-1.));
#472=DIRECTION('',(-1.,0.,0.));
#473=DIRECTION('',(0.,0.,1.));
#474=DIRECTION('',(-1.,0.,0.));
#475=DIRECTION('',(-1.,0.,0.));
#476=DIRECTION('',(0.,0.997564050259824,0.0697564737441243));
#477=DIRECTION('',(0.,-0.0697564737441243,0.997564050259824));
#478=DIRECTION('',(-1.,0.,0.));
#479=DIRECTION('',(-1.,0.,0.));
#480=DIRECTION('',(0.,0.,1.));
#481=DIRECTION('',(-1.,0.,0.));
#482=DIRECTION('',(0.,0.997564050259824,0.0697564737441251));
#483=DIRECTION('',(0.,-0.0697564737441252,0.997564050259824));
#484=DIRECTION('',(1.,0.,0.));
#485=DIRECTION('',(-0.706243967529309,0.0493853891036606,-0.70624396752931));
#486=DIRECTION('',(0.706243967529309,0.0493853891036606,-0.70624396752931));
#487=DIRECTION('',(1.,0.,0.));
#488=DIRECTION('',(0.,0.0697564737441252,-0.997564050259824));
#489=DIRECTION('',(0.,0.997564050259824,-0.0697564737441251));
#490=DIRECTION('',(0.,0.0697564737441252,0.997564050259824));
#491=DIRECTION('',(0.706243967529309,0.0493853891036606,0.70624396752931));
#492=DIRECTION('',(1.,0.,0.));
#493=DIRECTION('',(0.,-0.0697564737441252,-0.997564050259824));
#494=DIRECTION('',(1.,0.,0.));
#495=DIRECTION('',(-0.706243967529309,0.0493853891036606,0.70624396752931));
#496=DIRECTION('',(-1.,0.,0.));
#497=DIRECTION('',(-1.,0.,0.));
#498=DIRECTION('',(0.,0.,1.));
#499=DIRECTION('',(-1.,0.,0.));
#500=DIRECTION('',(0.,0.997564050259824,-0.0697564737441256));
#501=DIRECTION('',(0.,0.0697564737441256,0.997564050259824));
#502=DIRECTION('',(-1.,0.,0.));
#503=DIRECTION('',(-1.,0.,0.));
#504=DIRECTION('',(0.,0.,1.));
#505=DIRECTION('',(-1.,0.,0.));
#506=DIRECTION('',(0.,4.52699614539096E-16,1.));
#507=DIRECTION('',(0.,-1.,4.52699614539096E-16));
#508=DIRECTION('',(0.,0.,-1.));
#509=DIRECTION('',(-1.,0.,0.));
#510=DIRECTION('',(0.,1.,0.));
#511=DIRECTION('',(0.,1.,0.));
#512=DIRECTION('',(0.,0.,-1.));
#513=DIRECTION('',(-1.,0.,0.));
#514=DIRECTION('',(0.,-1.,0.));
#515=DIRECTION('',(0.,1.,0.));
#516=DIRECTION('',(1.,0.,0.));
#517=DIRECTION('',(0.,1.,0.));
#518=DIRECTION('',(1.,0.,0.));
#519=DIRECTION('',(0.,0.,-1.));
#520=DIRECTION('',(0.,-1.,0.));
#521=DIRECTION('',(1.,0.,0.));
#522=DIRECTION('',(0.,0.,-1.));
#523=DIRECTION('',(0.,-1.,0.));
#524=DIRECTION('',(0.,0.,1.));
#525=DIRECTION('',(1.,0.,0.));
#526=DIRECTION('',(1.,0.,0.));
#527=DIRECTION('',(0.,-1.,0.));
#528=DIRECTION('',(1.,0.,0.));
#529=DIRECTION('',(1.,0.,0.));
#530=DIRECTION('',(0.,0.,-1.));
#531=DIRECTION('',(-1.,0.,0.));
#532=DIRECTION('',(0.,0.,1.));
#533=DIRECTION('',(1.,0.,0.));
#534=DIRECTION('',(0.,0.,1.));
#535=DIRECTION('',(1.,0.,0.));
#536=DIRECTION('',(0.,-1.,0.));
#537=DIRECTION('',(1.,0.,0.));
#538=DIRECTION('',(1.,0.,0.));
#539=DIRECTION('',(0.,0.,-1.));
#540=DIRECTION('',(-1.,0.,0.));
#541=DIRECTION('',(0.,0.,1.));
#542=DIRECTION('',(-1.,0.,0.));
#543=DIRECTION('',(0.,-1.,0.));
#544=DIRECTION('',(-0.707106781186548,0.,0.707106781186547));
#545=DIRECTION('',(0.,1.,0.));
#546=DIRECTION('',(-0.707106781186548,0.,-0.707106781186547));
#547=DIRECTION('',(0.,-1.,0.));
#548=CARTESIAN_POINT('',(0.,0.,0.));
#549=CARTESIAN_POINT('',(0.0015,-1.38777878078145E-16,0.141852339944581));
#550=CARTESIAN_POINT('',(0.0015,-0.112706598835515,0.125480119107894));
#551=CARTESIAN_POINT('',(0.0015,-0.120595716029787,0.238299751163277));
#552=CARTESIAN_POINT('',(0.0015,-0.111015760193885,0.1013));
#553=CARTESIAN_POINT('',(0.0015,-1.38777878078145E-16,0.1013));
#554=CARTESIAN_POINT('',(0.0015,0.111015760193885,0.1013));
#555=CARTESIAN_POINT('',(0.0015,0.112706598835515,0.125480119107894));
#556=CARTESIAN_POINT('',(0.0015,0.120595716029787,0.238299751163277));
#557=CARTESIAN_POINT('',(0.0015,0.126082318306216,0.237916090557683));
#558=CARTESIAN_POINT('',(0.0015,0.123930143714424,0.242977527559805));
#559=CARTESIAN_POINT('',(0.0015,0.124273877897124,0.247893155387619));
#560=CARTESIAN_POINT('',(0.0015,0.124617612079824,0.252808783215434));
#561=CARTESIAN_POINT('',(0.0015,0.122622483979305,0.252948296162923));
#562=CARTESIAN_POINT('',(0.0015,0.122622483979305,0.254948296162923));
#563=CARTESIAN_POINT('',(0.0015,1.38777878078145E-16,0.254948296162923));
#564=CARTESIAN_POINT('',(0.0015,-0.122622483979305,0.254948296162923));
#565=CARTESIAN_POINT('',(0.0015,-0.122622483979305,0.252948296162923));
#566=CARTESIAN_POINT('',(0.0015,-0.124617612079824,0.252808783215434));
#567=CARTESIAN_POINT('',(0.0015,-0.124273877897124,0.247893155387619));
#568=CARTESIAN_POINT('',(0.0015,-0.123930143714424,0.242977527559805));
#569=CARTESIAN_POINT('',(0.0015,-0.126082318306216,0.237916090557683));
#570=CARTESIAN_POINT('',(-0.0015,-1.38777878078145E-16,0.141852339944581));
#571=CARTESIAN_POINT('',(-0.0015,0.112706598835515,0.125480119107894));
#572=CARTESIAN_POINT('',(-0.0015,0.120595716029787,0.238299751163277));
#573=CARTESIAN_POINT('',(-0.0015,0.109267589895298,0.0763));
#574=CARTESIAN_POINT('',(-0.0015,-0.109232626489326,0.0763));
#575=CARTESIAN_POINT('',(-0.0015,-0.109267589895298,0.0763));
#576=CARTESIAN_POINT('',(-0.0015,-0.112706598835515,0.125480119107894));
#577=CARTESIAN_POINT('',(-0.0015,-0.120595716029787,0.238299751163277));
#578=CARTESIAN_POINT('',(-0.0015,-0.126082318306216,0.237916090557683));
#579=CARTESIAN_POINT('',(-0.0015,-0.123930143714424,0.242977527559805));
#580=CARTESIAN_POINT('',(-0.0015,-0.124273877897124,0.247893155387619));
#581=CARTESIAN_POINT('',(-0.0015,-0.124617612079824,0.252808783215434));
#582=CARTESIAN_POINT('',(-0.0015,-0.122622483979305,0.252948296162923));
#583=CARTESIAN_POINT('',(-0.0015,-0.122622483979305,0.254948296162923));
#584=CARTESIAN_POINT('',(-0.0015,1.38777878078145E-16,0.254948296162923));
#585=CARTESIAN_POINT('',(-0.0015,0.122622483979305,0.254948296162923));
#586=CARTESIAN_POINT('',(-0.0015,0.122622483979305,0.252948296162923));
#587=CARTESIAN_POINT('',(-0.0015,0.124617612079824,0.252808783215434));
#588=CARTESIAN_POINT('',(-0.0015,0.124273877897124,0.247893155387619));
#589=CARTESIAN_POINT('',(-0.0015,0.123930143714424,0.242977527559805));
#590=CARTESIAN_POINT('',(-0.0015,0.126082318306216,0.237916090557683));
#591=CARTESIAN_POINT('',(0.0015,-0.122622483979305,0.252948296162923));
#592=CARTESIAN_POINT('',(0.0015,-0.124617612079824,0.252808783215434));
#593=CARTESIAN_POINT('',(0.0015,-0.122622483979305,0.254948296162923));
#594=CARTESIAN_POINT('',(0.0015,-0.124273877897124,0.247893155387619));
#595=CARTESIAN_POINT('',(0.0015,-0.123930143714424,0.242977527559805));
#596=CARTESIAN_POINT('',(0.0015,-0.126082318306216,0.237916090557683));
#597=CARTESIAN_POINT('',(0.0015,-0.120595716029787,0.238299751163277));
#598=CARTESIAN_POINT('',(0.0015,-0.112706598835515,0.125480119107894));
#599=CARTESIAN_POINT('',(0.,-0.110980796787914,0.1008));
#600=CARTESIAN_POINT('',(0.,-0.110980796787914,0.1008));
#601=CARTESIAN_POINT('',(0.001,-0.110980796787914,0.1008));
#602=CARTESIAN_POINT('',(-0.00237202246451944,-0.110745002007168,0.0974279775354806));
#603=CARTESIAN_POINT('',(0.00280983008976798,-0.108966217217102,0.071990169910232));
#604=CARTESIAN_POINT('',(-0.001,-0.109232626489326,0.0758));
#605=CARTESIAN_POINT('',(-0.0015,-0.109232626489326,0.0758));
#606=CARTESIAN_POINT('',(0.,-0.109232626489326,0.0758));
#607=CARTESIAN_POINT('',(0.,-0.112706598835515,0.125480119107894));
#608=CARTESIAN_POINT('',(0.0015,0.112706598835515,0.125480119107894));
#609=CARTESIAN_POINT('',(0.0136195462015765,0.111863241421964,0.113419546201576));
#610=CARTESIAN_POINT('',(0.001,0.110980796787914,0.1008));
#611=CARTESIAN_POINT('',(0.,0.110980796787914,0.1008));
#612=CARTESIAN_POINT('',(0.,0.110980796787914,0.1008));
#613=CARTESIAN_POINT('',(0.,0.112706598835515,0.125480119107894));
#614=CARTESIAN_POINT('',(0.,0.109232626489326,0.0758));
#615=CARTESIAN_POINT('',(-0.0015,0.109232626489326,0.0758));
#616=CARTESIAN_POINT('',(-0.001,0.109232626489326,0.0758));
#617=CARTESIAN_POINT('',(-0.0246536910347733,0.110886653694084,0.0994536910347734));
#618=CARTESIAN_POINT('',(0.0015,0.120595716029787,0.238299751163277));
#619=CARTESIAN_POINT('',(0.0015,0.126082318306216,0.237916090557683));
#620=CARTESIAN_POINT('',(0.0015,0.123930143714424,0.242977527559805));
#621=CARTESIAN_POINT('',(0.0015,0.124273877897124,0.247893155387619));
#622=CARTESIAN_POINT('',(0.0015,0.124617612079824,0.252808783215434));
#623=CARTESIAN_POINT('',(0.0015,0.122622483979305,0.252948296162923));
#624=CARTESIAN_POINT('',(0.0015,0.122622483979305,0.254948296162923));
#625=CARTESIAN_POINT('',(0.0015,1.38777878078145E-16,0.254948296162923));
#626=CARTESIAN_POINT('',(-0.0015,0.,0.0758));
#627=CARTESIAN_POINT('',(-0.001,0.109232626489326,0.0758));
#628=CARTESIAN_POINT('',(0.,0.,0.0758));
#629=CARTESIAN_POINT('',(0.,0.,0.1008));
#630=CARTESIAN_POINT('',(0.001,0.,0.1008));
#631=CARTESIAN_POINT('',(0.,0.,0.1008));
#632=CARTESIAN_POINT('',(0.,1.11022302462516E-16,0.132874148081461));
#633=CARTESIAN_POINT('',(0.,0.015,0.0883));
#634=CARTESIAN_POINT('',(0.,0.015,0.0945));
#635=CARTESIAN_POINT('',(0.,0.015,0.0821));
#636=CARTESIAN_POINT('',(0.,1.11022302462516E-16,0.0821));
#637=CARTESIAN_POINT('',(0.,-0.015,0.0821));
#638=CARTESIAN_POINT('',(0.,-0.015,0.0883));
#639=CARTESIAN_POINT('',(0.,-0.015,0.0945));
#640=CARTESIAN_POINT('',(0.,1.11022302462516E-16,0.0945));
#641=CARTESIAN_POINT('',(-0.0005,1.04083408558608E-17,0.0945));
#642=CARTESIAN_POINT('',(-0.0005,-0.015,0.0945));
#643=CARTESIAN_POINT('',(-0.0007,-0.015,0.0945));
#644=CARTESIAN_POINT('',(-0.0007,1.04083408558608E-17,0.0945));
#645=CARTESIAN_POINT('',(-0.0007,0.015,0.0945));
#646=CARTESIAN_POINT('',(-0.0005,0.015,0.0945));
#647=CARTESIAN_POINT('',(-0.0005,0.015,0.0883));
#648=CARTESIAN_POINT('',(-0.0007,0.015,0.0883));
#649=CARTESIAN_POINT('',(-0.0007,0.015,0.0821));
#650=CARTESIAN_POINT('',(-0.0005,0.015,0.0821));
#651=CARTESIAN_POINT('',(-0.0005,8.67361737988404E-18,0.0821));
#652=CARTESIAN_POINT('',(-0.0007,8.67361737988404E-18,0.0821));
#653=CARTESIAN_POINT('',(-0.0007,-0.015,0.0821));
#654=CARTESIAN_POINT('',(-0.0005,-0.015,0.0821));
#655=CARTESIAN_POINT('',(-0.0005,-0.015,0.0883));
#656=CARTESIAN_POINT('',(-0.0007,-0.015,0.0883));
#657=CARTESIAN_POINT('',(-0.0007,0.,0.0883));
#658=CARTESIAN_POINT('',(0.0015,-1.38777878078145E-16,0.1013));
#659=CARTESIAN_POINT('',(-0.001,0.,0.0758));
#660=MECHANICAL_DESIGN_GEOMETRIC_PRESENTATION_REPRESENTATION('',(#393),
#661);
#661=(
GEOMETRIC_REPRESENTATION_CONTEXT(3)
GLOBAL_UNCERTAINTY_ASSIGNED_CONTEXT((#662))
GLOBAL_UNIT_ASSIGNED_CONTEXT((#665,#664,#663))
REPRESENTATION_CONTEXT('IKEA Samla 22l Partition_up V01',
'TOP_LEVEL_ASSEMBLY_PART')
);
#662=UNCERTAINTY_MEASURE_WITH_UNIT(LENGTH_MEASURE(5.E-6),#665,
'DISTANCE_ACCURACY_VALUE','Maximum Tolerance applied to model');
#663=(
NAMED_UNIT(*)
SI_UNIT($,.STERADIAN.)
SOLID_ANGLE_UNIT()
);
#664=(
NAMED_UNIT(*)
PLANE_ANGLE_UNIT()
SI_UNIT($,.RADIAN.)
);
#665=(
LENGTH_UNIT()
NAMED_UNIT(*)
SI_UNIT($,.METRE.)
);
#666=PRODUCT_DEFINITION_SHAPE('','',#667);
#667=PRODUCT_DEFINITION('','',#669,#668);
#668=PRODUCT_DEFINITION_CONTEXT('',#675,'design');
#669=PRODUCT_DEFINITION_FORMATION_WITH_SPECIFIED_SOURCE('','',#671,
 .NOT_KNOWN.);
#670=PRODUCT_RELATED_PRODUCT_CATEGORY('','',(#671));
#671=PRODUCT('IKEA Samla 22l Partition_up V01',
'IKEA Samla 22l Partition_up V01','IKEA Samla 22l Partition_up V01',(#673));
#672=PRODUCT_CATEGORY('','');
#673=PRODUCT_CONTEXT('',#675,'mechanical');
#674=APPLICATION_PROTOCOL_DEFINITION('international standard',
'ap242_managed_model_based_3d_engineering',2011,#675);
#675=APPLICATION_CONTEXT('managed model based 3d engineering');
ENDSEC;
END-ISO-10303-21;
