ISO-10303-21;
HEADER;
/* Generated by software containing ST-Developer
 * from STEP Tools, Inc. (www.steptools.com) 
 */
/* OPTION: using custom renumber hook */

FILE_DESCRIPTION(
/* description */ ('STEP AP242',
'CAx-IF Rec.Pracs.---Representation and Presentation of Product Manufa
cturing Information (PMI)---4.0---2014-10-13',
'CAx-IF Rec.Pracs.---3D Tessellated Geometry---0.4---2014-09-14','2;1'),

/* implementation_level */ '2;1');

FILE_NAME(
/* name */ '65d8d6933d8d1747465ade3d',
/* time_stamp */ '2024-02-23T17:32:04Z',
/* author */ (''),
/* organization */ (''),
/* preprocessor_version */ 'ST-DEVELOPER v19.4',
/* originating_system */ '  ',
/* authorisation */ '  ');

FILE_SCHEMA (('AP242_MANAGED_MODEL_BASED_3D_ENGINEERING_MIM_LF { 1 0 10303 442 1 1 4 }'));
ENDSEC;

DATA;
#10=SHAPE_REPRESENTATION_RELATIONSHIP('','',#87,#11);
#11=ADVANCED_BREP_SHAPE_REPRESENTATION('',(#85),#143);
#12=PLANE('',#92);
#13=PLANE('',#95);
#14=ORIENTED_EDGE('',*,*,#26,.F.);
#15=ORIENTED_EDGE('',*,*,#27,.T.);
#16=ORIENTED_EDGE('',*,*,#28,.T.);
#17=ORIENTED_EDGE('',*,*,#29,.T.);
#18=ORIENTED_EDGE('',*,*,#26,.T.);
#19=ORIENTED_EDGE('',*,*,#30,.F.);
#20=ORIENTED_EDGE('',*,*,#31,.F.);
#21=ORIENTED_EDGE('',*,*,#27,.F.);
#22=ORIENTED_EDGE('',*,*,#29,.F.);
#23=ORIENTED_EDGE('',*,*,#31,.T.);
#24=ORIENTED_EDGE('',*,*,#28,.F.);
#25=ORIENTED_EDGE('',*,*,#30,.T.);
#26=EDGE_CURVE('',#32,#32,#38,.T.);
#27=EDGE_CURVE('',#33,#33,#39,.T.);
#28=EDGE_CURVE('',#34,#34,#40,.T.);
#29=EDGE_CURVE('',#35,#35,#41,.T.);
#30=EDGE_CURVE('',#36,#36,#42,.F.);
#31=EDGE_CURVE('',#37,#37,#43,.F.);
#32=VERTEX_POINT('',#127);
#33=VERTEX_POINT('',#129);
#34=VERTEX_POINT('',#132);
#35=VERTEX_POINT('',#134);
#36=VERTEX_POINT('',#137);
#37=VERTEX_POINT('',#139);
#38=CIRCLE('',#90,0.009);
#39=CIRCLE('',#91,0.009);
#40=CIRCLE('',#93,0.0017);
#41=CIRCLE('',#94,0.0017);
#42=CIRCLE('',#96,0.0017);
#43=CIRCLE('',#97,0.0017);
#44=EDGE_LOOP('',(#14));
#45=EDGE_LOOP('',(#15));
#46=EDGE_LOOP('',(#16));
#47=EDGE_LOOP('',(#17));
#48=EDGE_LOOP('',(#18));
#49=EDGE_LOOP('',(#19));
#50=EDGE_LOOP('',(#20));
#51=EDGE_LOOP('',(#21));
#52=EDGE_LOOP('',(#22));
#53=EDGE_LOOP('',(#23));
#54=EDGE_LOOP('',(#24));
#55=EDGE_LOOP('',(#25));
#56=FACE_BOUND('',#44,.T.);
#57=FACE_BOUND('',#45,.T.);
#58=FACE_BOUND('',#46,.T.);
#59=FACE_BOUND('',#47,.T.);
#60=FACE_BOUND('',#48,.T.);
#61=FACE_BOUND('',#49,.T.);
#62=FACE_BOUND('',#50,.T.);
#63=FACE_BOUND('',#51,.T.);
#64=FACE_BOUND('',#52,.T.);
#65=FACE_BOUND('',#53,.T.);
#66=FACE_BOUND('',#54,.T.);
#67=FACE_BOUND('',#55,.T.);
#68=CYLINDRICAL_SURFACE('',#89,0.009);
#69=CYLINDRICAL_SURFACE('',#98,0.0017);
#70=CYLINDRICAL_SURFACE('',#99,0.0017);
#71=ADVANCED_FACE('',(#56,#57),#68,.T.);
#72=ADVANCED_FACE('',(#58,#59,#60),#12,.T.);
#73=ADVANCED_FACE('',(#61,#62,#63),#13,.F.);
#74=ADVANCED_FACE('',(#64,#65),#69,.F.);
#75=ADVANCED_FACE('',(#66,#67),#70,.F.);
#76=CLOSED_SHELL('',(#71,#72,#73,#74,#75));
#77=STYLED_ITEM('',(#78),#85);
#78=PRESENTATION_STYLE_ASSIGNMENT((#79));
#79=SURFACE_STYLE_USAGE(.BOTH.,#80);
#80=SURFACE_SIDE_STYLE('',(#81));
#81=SURFACE_STYLE_FILL_AREA(#82);
#82=FILL_AREA_STYLE('',(#83));
#83=FILL_AREA_STYLE_COLOUR('',#84);
#84=COLOUR_RGB('',0.972549019607843,0.529411764705882,0.00392156862745098);
#85=MANIFOLD_SOLID_BREP('Hub Top Washer',#76);
#86=SHAPE_DEFINITION_REPRESENTATION(#148,#87);
#87=SHAPE_REPRESENTATION('Hub Top Washer',(#88),#143);
#88=AXIS2_PLACEMENT_3D('',#124,#100,#101);
#89=AXIS2_PLACEMENT_3D('',#125,#102,#103);
#90=AXIS2_PLACEMENT_3D('',#126,#104,#105);
#91=AXIS2_PLACEMENT_3D('',#128,#106,#107);
#92=AXIS2_PLACEMENT_3D('',#130,#108,#109);
#93=AXIS2_PLACEMENT_3D('',#131,#110,#111);
#94=AXIS2_PLACEMENT_3D('',#133,#112,#113);
#95=AXIS2_PLACEMENT_3D('',#135,#114,#115);
#96=AXIS2_PLACEMENT_3D('',#136,#116,#117);
#97=AXIS2_PLACEMENT_3D('',#138,#118,#119);
#98=AXIS2_PLACEMENT_3D('',#140,#120,#121);
#99=AXIS2_PLACEMENT_3D('',#141,#122,#123);
#100=DIRECTION('',(0.,0.,1.));
#101=DIRECTION('',(1.,0.,0.));
#102=DIRECTION('',(0.,0.,-1.));
#103=DIRECTION('',(-1.,0.,0.));
#104=DIRECTION('',(0.,0.,1.));
#105=DIRECTION('',(1.,0.,0.));
#106=DIRECTION('',(0.,0.,1.));
#107=DIRECTION('',(1.,0.,0.));
#108=DIRECTION('',(0.,0.,1.));
#109=DIRECTION('',(1.,0.,0.));
#110=DIRECTION('',(0.,0.,-1.));
#111=DIRECTION('',(-1.,0.,0.));
#112=DIRECTION('',(0.,0.,-1.));
#113=DIRECTION('',(-1.,0.,0.));
#114=DIRECTION('',(0.,0.,1.));
#115=DIRECTION('',(1.,0.,0.));
#116=DIRECTION('',(0.,0.,1.));
#117=DIRECTION('',(1.,0.,0.));
#118=DIRECTION('',(0.,0.,1.));
#119=DIRECTION('',(1.,0.,0.));
#120=DIRECTION('',(0.,0.,-1.));
#121=DIRECTION('',(-1.,0.,0.));
#122=DIRECTION('',(0.,0.,-1.));
#123=DIRECTION('',(-1.,0.,0.));
#124=CARTESIAN_POINT('',(0.,0.,0.));
#125=CARTESIAN_POINT('',(0.,5.51091059616309E-19,0.025));
#126=CARTESIAN_POINT('',(0.,5.51091059616309E-19,0.025));
#127=CARTESIAN_POINT('',(0.009,5.51091059616309E-19,0.025));
#128=CARTESIAN_POINT('',(0.,5.51091059616309E-19,0.024));
#129=CARTESIAN_POINT('',(0.009,5.51091059616309E-19,0.024));
#130=CARTESIAN_POINT('',(0.,0.,0.025));
#131=CARTESIAN_POINT('',(-0.00501290700810162,-8.67361737988404E-19,0.025));
#132=CARTESIAN_POINT('',(-0.00671290700810162,-8.67361737988404E-19,0.025));
#133=CARTESIAN_POINT('',(0.00501290700810162,-8.67361737988404E-19,0.025));
#134=CARTESIAN_POINT('',(0.00331290700810162,-8.67361737988404E-19,0.025));
#135=CARTESIAN_POINT('',(0.,0.,0.024));
#136=CARTESIAN_POINT('',(-0.00501290700810162,-8.67361737988404E-19,0.024));
#137=CARTESIAN_POINT('',(-0.00331290700810162,-8.67361737988404E-19,0.024));
#138=CARTESIAN_POINT('',(0.00501290700810162,-8.67361737988404E-19,0.024));
#139=CARTESIAN_POINT('',(0.00671290700810162,-8.67361737988404E-19,0.024));
#140=CARTESIAN_POINT('',(0.00501290700810162,-8.67361737988404E-19,0.025));
#141=CARTESIAN_POINT('',(-0.00501290700810162,-8.67361737988404E-19,0.025));
#142=MECHANICAL_DESIGN_GEOMETRIC_PRESENTATION_REPRESENTATION('',(#77),#143);
#143=(
GEOMETRIC_REPRESENTATION_CONTEXT(3)
GLOBAL_UNCERTAINTY_ASSIGNED_CONTEXT((#144))
GLOBAL_UNIT_ASSIGNED_CONTEXT((#147,#146,#145))
REPRESENTATION_CONTEXT('Hub Top Washer','TOP_LEVEL_ASSEMBLY_PART')
);
#144=UNCERTAINTY_MEASURE_WITH_UNIT(LENGTH_MEASURE(5.E-6),#147,
'DISTANCE_ACCURACY_VALUE','Maximum Tolerance applied to model');
#145=(
NAMED_UNIT(*)
SI_UNIT($,.STERADIAN.)
SOLID_ANGLE_UNIT()
);
#146=(
NAMED_UNIT(*)
PLANE_ANGLE_UNIT()
SI_UNIT($,.RADIAN.)
);
#147=(
LENGTH_UNIT()
NAMED_UNIT(*)
SI_UNIT($,.METRE.)
);
#148=PRODUCT_DEFINITION_SHAPE('','',#149);
#149=PRODUCT_DEFINITION('','',#151,#150);
#150=PRODUCT_DEFINITION_CONTEXT('',#157,'design');
#151=PRODUCT_DEFINITION_FORMATION_WITH_SPECIFIED_SOURCE('','',#153,
 .NOT_KNOWN.);
#152=PRODUCT_RELATED_PRODUCT_CATEGORY('','',(#153));
#153=PRODUCT('Hub Top Washer','Hub Top Washer','Hub Top Washer',(#155));
#154=PRODUCT_CATEGORY('','');
#155=PRODUCT_CONTEXT('',#157,'mechanical');
#156=APPLICATION_PROTOCOL_DEFINITION('international standard',
'ap242_managed_model_based_3d_engineering',2011,#157);
#157=APPLICATION_CONTEXT('managed model based 3d engineering');
ENDSEC;
END-ISO-10303-21;
