  0
SECTION
  2
HEADER
  9
$ACADVER
  1
AC1009
  0
ENDSEC
  0
SECTION
  2
ENTITIES
  0
POLYLINE
  5
90
  8
Layer_1
  62
3
  66
1
  10
0
  20
0
  30
0
  0
VERTEX
  5
90
  8
Layer_1
  10
177.75
  20
174.5
  0
VERTEX
  5
91
  8
Layer_1
  10
143.25
  20
174.5
  0
VERTEX
  5
92
  8
Layer_1
  10
143.25
  20
197.5
  0
VERTEX
  5
93
  8
Layer_1
  10
177.75
  20
197.5
  0
VERTEX
  5
94
  8
Layer_1
  10
177.75
  20
174.5
  0
SEQEND
  0
POLYLINE
  5
96
  8
Layer_0
  62
5
  66
1
  10
0
  20
0
  30
0
  0
VERTEX
  5
96
  8
Layer_0
  10
151.28705
  20
182.18216
  42
0.13497702
  0
VERTEX
  5
97
  8
Layer_0
  10
152.92596
  20
182.77713
  42
0.28615946
  0
VERTEX
  5
98
  8
Layer_0
  10
154.39691
  20
186.08475
  42
0.20681979
  0
VERTEX
  5
99
  8
Layer_0
  10
152.95941
  20
188.66068
  42
0.30575417
  0
VERTEX
  5
9a
  8
Layer_0
  10
149.06317
  20
188.89383
  42
0.21859097
  0
VERTEX
  5
9b
  8
Layer_0
  10
147.61273
  20
186.64969
  42
0.13376778
  0
VERTEX
  5
9c
  8
Layer_0
  10
147.83051
  20
184.27396
  42
0.33455159
  0
VERTEX
  5
9d
  8
Layer_0
  10
151.28705
  20
182.18216
  0
SEQEND
  0
POLYLINE
  5
9f
  8
Layer_0
  62
5
  66
1
  10
0
  20
0
  30
0
  0
VERTEX
  5
9f
  8
Layer_0
  10
170.91376
  20
182.17606
  42
0.096802444
  0
VERTEX
  5
a0
  8
Layer_0
  10
172.69183
  20
182.61526
  42
0.41686951
  0
VERTEX
  5
a1
  8
Layer_0
  10
173.43842
  20
183.95828
  42
0.38895192
  0
VERTEX
  5
a2
  8
Layer_0
  10
173.11395
  20
184.14993
  42
0.08174484
  0
VERTEX
  5
a3
  8
Layer_0
  10
172.75995
  20
183.89163
  0
VERTEX
  5
a4
  8
Layer_0
  10
172.62006
  20
183.79617
  42
-0.14977755
  0
VERTEX
  5
a5
  8
Layer_0
  10
171.60223
  20
183.57352
  42
-0.28342444
  0
VERTEX
  5
a6
  8
Layer_0
  10
170.21625
  20
184.38651
  0
VERTEX
  5
a7
  8
Layer_0
  10
170.08856
  20
184.63553
  42
-0.0028342791
  0
VERTEX
  5
a8
  8
Layer_0
  10
171.45526
  20
184.66605
  0
VERTEX
  5
a9
  8
Layer_0
  10
171.58173
  20
184.68436
  42
0.39672533
  0
VERTEX
  5
aa
  8
Layer_0
  10
171.83417
  20
185.02005
  42
0.22098188
  0
VERTEX
  5
ab
  8
Layer_0
  10
171.73886
  20
185.35219
  42
0.22096943
  0
VERTEX
  5
ac
  8
Layer_0
  10
171.42157
  20
185.48904
  42
0.011428749
  0
VERTEX
  5
ad
  8
Layer_0
  10
169.83832
  20
185.48392
  0
VERTEX
  5
ae
  8
Layer_0
  10
169.79877
  20
185.78909
  42
-0.012662193
  0
VERTEX
  5
af
  8
Layer_0
  10
169.77728
  20
186.00882
  0
VERTEX
  5
b0
  8
Layer_0
  10
170.19403
  20
186.01614
  0
VERTEX
  5
b1
  8
Layer_0
  10
171.29706
  20
186.02103
  42
0.17195159
  0
VERTEX
  5
b2
  8
Layer_0
  10
171.73358
  20
186.11868
  42
0.29956201
  0
VERTEX
  5
b3
  8
Layer_0
  10
171.76727
  20
186.69193
  42
0.25472504
  0
VERTEX
  5
b4
  8
Layer_0
  10
171.27264
  20
186.86942
  42
0.0067105393
  0
VERTEX
  5
b5
  8
Layer_0
  10
169.75897
  20
186.85721
  42
-0.16068714
  0
VERTEX
  5
b6
  8
Layer_0
  10
170.04901
  20
187.68729
  42
-0.19870971
  0
VERTEX
  5
b7
  8
Layer_0
  10
170.82172
  20
187.98172
  42
-0.22900967
  0
VERTEX
  5
b8
  8
Layer_0
  10
171.97455
  20
187.54691
  0
VERTEX
  5
b9
  8
Layer_0
  10
172.09662
  20
187.42972
  42
0.13189322
  0
VERTEX
  5
ba
  8
Layer_0
  10
172.70551
  20
187.05423
  42
0.34247619
  0
VERTEX
  5
bb
  8
Layer_0
  10
173.26019
  20
187.34988
  42
0.2129237
  0
VERTEX
  5
bc
  8
Layer_0
  10
173.25946
  20
188.18558
  42
0.12649848
  0
VERTEX
  5
bd
  8
Layer_0
  10
172.64594
  20
189.06595
  42
0.3155035
  0
VERTEX
  5
be
  8
Layer_0
  10
172.08441
  20
189.13382
  0
VERTEX
  5
bf
  8
Layer_0
  10
171.94867
  20
189.08817
  42
-0.1750302
  0
VERTEX
  5
c0
  8
Layer_0
  10
171.59613
  20
189.14603
  0
VERTEX
  5
c1
  8
Layer_0
  10
171.31244
  20
189.2449
  42
0.23295692
  0
VERTEX
  5
c2
  8
Layer_0
  10
168.35223
  20
188.71268
  42
0.17729025
  0
VERTEX
  5
c3
  8
Layer_0
  10
167.25043
  20
186.82059
  42
0.0372783
  0
VERTEX
  5
c4
  8
Layer_0
  10
166.31659
  20
186.78397
  42
0.32234084
  0
VERTEX
  5
c5
  8
Layer_0
  10
166.12201
  20
186.56766
  42
0.34793267
  0
VERTEX
  5
c6
  8
Layer_0
  10
166.32611
  20
186.01468
  42
0.11373224
  0
VERTEX
  5
c7
  8
Layer_0
  10
166.66449
  20
185.94778
  0
VERTEX
  5
c8
  8
Layer_0
  10
167.14667
  20
185.94778
  0
VERTEX
  5
c9
  8
Layer_0
  10
167.14667
  20
185.84402
  42
0.026799697
  0
VERTEX
  5
ca
  8
Layer_0
  10
167.17719
  20
185.4473
  0
VERTEX
  5
cb
  8
Layer_0
  10
166.8537
  20
185.44412
  42
0.048708
  0
VERTEX
  5
cc
  8
Layer_0
  10
166.28607
  20
185.39847
  42
0.29212925
  0
VERTEX
  5
cd
  8
Layer_0
  10
166.12006
  20
185.18094
  42
0.34740604
  0
VERTEX
  5
ce
  8
Layer_0
  10
166.32611
  20
184.64066
  42
0.11232632
  0
VERTEX
  5
cf
  8
Layer_0
  10
166.66449
  20
184.57449
  0
VERTEX
  5
d0
  8
Layer_0
  10
167.34808
  20
184.57449
  0
VERTEX
  5
d1
  8
Layer_0
  10
167.44745
  20
184.29984
  42
0.317412
  0
VERTEX
  5
d2
  8
Layer_0
  10
170.58905
  20
182.16971
  0
VERTEX
  5
d3
  8
Layer_0
  10
170.91376
  20
182.17606
  0
SEQEND
  0
POLYLINE
  5
d5
  8
Layer_0
  62
5
  66
1
  10
0
  20
0
  30
0
  0
VERTEX
  5
d5
  8
Layer_0
  10
161.8349
  20
181.06107
  42
0.11873936
  0
VERTEX
  5
d6
  8
Layer_0
  10
164.19598
  20
181.76834
  42
0.14655514
  0
VERTEX
  5
d7
  8
Layer_0
  10
165.41449
  20
183.08987
  42
0.31748418
  0
VERTEX
  5
d8
  8
Layer_0
  10
165.06439
  20
185.19315
  42
0.10373149
  0
VERTEX
  5
d9
  8
Layer_0
  10
164.16937
  20
185.85013
  42
0.081145636
  0
VERTEX
  5
da
  8
Layer_0
  10
161.55927
  20
186.48026
  0
VERTEX
  5
db
  8
Layer_0
  10
161.45844
  20
186.50516
  42
-0.37669242
  0
VERTEX
  5
dc
  8
Layer_0
  10
161.28241
  20
186.74734
  42
-0.20679287
  0
VERTEX
  5
dd
  8
Layer_0
  10
161.3817
  20
187.00479
  42
-0.20679312
  0
VERTEX
  5
de
  8
Layer_0
  10
161.63763
  20
187.10794
  0
VERTEX
  5
df
  8
Layer_0
  10
161.74628
  20
187.11356
  0
VERTEX
  5
e0
  8
Layer_0
  10
164.50507
  20
187.11356
  42
0.25681263
  0
VERTEX
  5
e1
  8
Layer_0
  10
165.10663
  20
187.42313
  42
0.21221371
  0
VERTEX
  5
e2
  8
Layer_0
  10
165.47626
  20
189.08182
  42
0.31125754
  0
VERTEX
  5
e3
  8
Layer_0
  10
165.10931
  20
189.24979
  0
VERTEX
  5
e4
  8
Layer_0
  10
160.76971
  20
189.24979
  42
0.20927047
  0
VERTEX
  5
e5
  8
Layer_0
  10
160.24481
  20
189.08182
  42
0.068335049
  0
VERTEX
  5
e6
  8
Layer_0
  10
159.80536
  20
188.18777
  42
0.050180594
  0
VERTEX
  5
e7
  8
Layer_0
  10
158.90131
  20
185.24271
  42
0.19396007
  0
VERTEX
  5
e8
  8
Layer_0
  10
158.9239
  20
184.85684
  42
0.19395845
  0
VERTEX
  5
e9
  8
Layer_0
  10
159.21112
  20
184.59818
  42
0.016426506
  0
VERTEX
  5
ea
  8
Layer_0
  10
160.44208
  20
184.35623
  0
VERTEX
  5
eb
  8
Layer_0
  10
160.76508
  20
184.26321
  42
-0.13684677
  0
VERTEX
  5
ec
  8
Layer_0
  10
161.61786
  20
183.76346
  42
-0.38230422
  0
VERTEX
  5
ed
  8
Layer_0
  10
161.63495
  20
182.78738
  42
-0.20390072
  0
VERTEX
  5
ee
  8
Layer_0
  10
160.65985
  20
182.44437
  42
-0.051923819
  0
VERTEX
  5
ef
  8
Layer_0
  10
159.30487
  20
182.6763
  0
VERTEX
  5
f0
  8
Layer_0
  10
159.23993
  20
182.66336
  42
0.23420893
  0
VERTEX
  5
f1
  8
Layer_0
  10
158.98138
  20
182.11282
  42
0.34221684
  0
VERTEX
  5
f2
  8
Layer_0
  10
159.35638
  20
181.39407
  42
0.091686215
  0
VERTEX
  5
f3
  8
Layer_0
  10
160.84418
  20
181.05496
  42
0.034992799
  0
VERTEX
  5
f4
  8
Layer_0
  10
161.8349
  20
181.06107
  0
SEQEND
  0
POLYLINE
  5
f6
  8
Layer_0
  62
5
  66
1
  10
0
  20
0
  30
0
  0
VERTEX
  5
f6
  8
Layer_0
  10
150.98651
  20
183.95804
  42
-0.19330554
  0
VERTEX
  5
f7
  8
Layer_0
  10
150.63055
  20
184.32425
  42
-0.13800923
  0
VERTEX
  5
f8
  8
Layer_0
  10
150.18378
  20
187.01663
  42
-0.22093972
  0
VERTEX
  5
f9
  8
Layer_0
  10
150.46771
  20
187.49881
  42
-0.31206272
  0
VERTEX
  5
fa
  8
Layer_0
  10
151.03192
  20
187.43704
  42
-0.13769553
  0
VERTEX
  5
fb
  8
Layer_0
  10
151.43842
  20
186.65799
  42
-0.098380652
  0
VERTEX
  5
fc
  8
Layer_0
  10
151.6579
  20
184.48636
  42
-0.21699981
  0
VERTEX
  5
fd
  8
Layer_0
  10
151.38007
  20
183.99515
  42
-0.20822898
  0
VERTEX
  5
fe
  8
Layer_0
  10
150.98651
  20
183.95804
  0
SEQEND
  0
POLYLINE
  5
100
  8
Layer_0
  62
5
  70
1
  66
1
  10
0
  20
0
  30
0
  0
VERTEX
  5
100
  8
Layer_0
  10
156.52777
  20
180.14383
  42
0.19345944
  0
VERTEX
  5
101
  8
Layer_0
  10
157.28314
  20
180.74808
  42
0.15329809
  0
VERTEX
  5
102
  8
Layer_0
  10
158.04999
  20
183.35062
  42
0.23645249
  0
VERTEX
  5
103
  8
Layer_0
  10
157.24554
  20
184.90848
  42
0.37490541
  0
VERTEX
  5
104
  8
Layer_0
  10
155.4389
  20
184.64163
  42
0.38761695
  0
VERTEX
  5
105
  8
Layer_0
  10
155.47137
  20
182.68631
  42
0.1194855
  0
VERTEX
  5
106
  8
Layer_0
  10
156.17133
  20
182.27347
  0
VERTEX
  5
107
  8
Layer_0
  10
156.26215
  20
182.22513
  42
-0.30932908
  0
VERTEX
  5
108
  8
Layer_0
  10
156.35223
  20
181.80032
  42
-0.070405174
  0
VERTEX
  5
109
  8
Layer_0
  10
155.85077
  20
180.76126
  0
VERTEX
  5
10a
  8
Layer_0
  10
155.80731
  20
180.66092
  42
0.3199563
  0
VERTEX
  5
10b
  8
Layer_0
  10
155.97894
  20
180.27151
  42
0.21487579
  0
SEQEND
  0
POLYLINE
  5
10d
  8
Layer_1
  62
3
  66
1
  10
0
  20
0
  30
0
  0
VERTEX
  5
10d
  8
Layer_1
  10
217.25
  20
174.5
  0
VERTEX
  5
10e
  8
Layer_1
  10
182.75
  20
174.5
  0
VERTEX
  5
10f
  8
Layer_1
  10
182.75
  20
197.5
  0
VERTEX
  5
110
  8
Layer_1
  10
217.25
  20
197.5
  0
VERTEX
  5
111
  8
Layer_1
  10
217.25
  20
174.5
  0
SEQEND
  0
POLYLINE
  5
113
  8
Layer_0
  62
5
  66
1
  10
0
  20
0
  30
0
  0
VERTEX
  5
113
  8
Layer_0
  10
190.78705
  20
182.18216
  42
0.13497702
  0
VERTEX
  5
114
  8
Layer_0
  10
192.42596
  20
182.77713
  42
0.28615946
  0
VERTEX
  5
115
  8
Layer_0
  10
193.89691
  20
186.08475
  42
0.20681979
  0
VERTEX
  5
116
  8
Layer_0
  10
192.45941
  20
188.66068
  42
0.30575417
  0
VERTEX
  5
117
  8
Layer_0
  10
188.56317
  20
188.89383
  42
0.21859097
  0
VERTEX
  5
118
  8
Layer_0
  10
187.11273
  20
186.64969
  42
0.13376778
  0
VERTEX
  5
119
  8
Layer_0
  10
187.33051
  20
184.27396
  42
0.33455159
  0
VERTEX
  5
11a
  8
Layer_0
  10
190.78705
  20
182.18216
  0
SEQEND
  0
POLYLINE
  5
11c
  8
Layer_0
  62
5
  66
1
  10
0
  20
0
  30
0
  0
VERTEX
  5
11c
  8
Layer_0
  10
210.41376
  20
182.17606
  42
0.096802444
  0
VERTEX
  5
11d
  8
Layer_0
  10
212.19183
  20
182.61526
  42
0.41686951
  0
VERTEX
  5
11e
  8
Layer_0
  10
212.93842
  20
183.95828
  42
0.38895192
  0
VERTEX
  5
11f
  8
Layer_0
  10
212.61395
  20
184.14993
  42
0.08174484
  0
VERTEX
  5
120
  8
Layer_0
  10
212.25995
  20
183.89163
  0
VERTEX
  5
121
  8
Layer_0
  10
212.12006
  20
183.79617
  42
-0.14977755
  0
VERTEX
  5
122
  8
Layer_0
  10
211.10223
  20
183.57352
  42
-0.28342444
  0
VERTEX
  5
123
  8
Layer_0
  10
209.71625
  20
184.38651
  0
VERTEX
  5
124
  8
Layer_0
  10
209.58856
  20
184.63553
  42
-0.0028342791
  0
VERTEX
  5
125
  8
Layer_0
  10
210.95526
  20
184.66605
  0
VERTEX
  5
126
  8
Layer_0
  10
211.08173
  20
184.68436
  42
0.39672533
  0
VERTEX
  5
127
  8
Layer_0
  10
211.33417
  20
185.02005
  42
0.22098188
  0
VERTEX
  5
128
  8
Layer_0
  10
211.23886
  20
185.35219
  42
0.22096943
  0
VERTEX
  5
129
  8
Layer_0
  10
210.92157
  20
185.48904
  42
0.011428749
  0
VERTEX
  5
12a
  8
Layer_0
  10
209.33832
  20
185.48392
  0
VERTEX
  5
12b
  8
Layer_0
  10
209.29877
  20
185.78909
  42
-0.012662193
  0
VERTEX
  5
12c
  8
Layer_0
  10
209.27728
  20
186.00882
  0
VERTEX
  5
12d
  8
Layer_0
  10
209.69403
  20
186.01614
  0
VERTEX
  5
12e
  8
Layer_0
  10
210.79706
  20
186.02103
  42
0.17195159
  0
VERTEX
  5
12f
  8
Layer_0
  10
211.23358
  20
186.11868
  42
0.29956201
  0
VERTEX
  5
130
  8
Layer_0
  10
211.26727
  20
186.69193
  42
0.25472504
  0
VERTEX
  5
131
  8
Layer_0
  10
210.77264
  20
186.86942
  42
0.0067105393
  0
VERTEX
  5
132
  8
Layer_0
  10
209.25897
  20
186.85721
  42
-0.16068714
  0
VERTEX
  5
133
  8
Layer_0
  10
209.54901
  20
187.68729
  42
-0.19870971
  0
VERTEX
  5
134
  8
Layer_0
  10
210.32172
  20
187.98172
  42
-0.22900967
  0
VERTEX
  5
135
  8
Layer_0
  10
211.47455
  20
187.54691
  0
VERTEX
  5
136
  8
Layer_0
  10
211.59662
  20
187.42972
  42
0.13189322
  0
VERTEX
  5
137
  8
Layer_0
  10
212.20551
  20
187.05423
  42
0.34247619
  0
VERTEX
  5
138
  8
Layer_0
  10
212.76019
  20
187.34988
  42
0.2129237
  0
VERTEX
  5
139
  8
Layer_0
  10
212.75946
  20
188.18558
  42
0.12649848
  0
VERTEX
  5
13a
  8
Layer_0
  10
212.14594
  20
189.06595
  42
0.3155035
  0
VERTEX
  5
13b
  8
Layer_0
  10
211.58441
  20
189.13382
  0
VERTEX
  5
13c
  8
Layer_0
  10
211.44867
  20
189.08817
  42
-0.1750302
  0
VERTEX
  5
13d
  8
Layer_0
  10
211.09613
  20
189.14603
  0
VERTEX
  5
13e
  8
Layer_0
  10
210.81244
  20
189.2449
  42
0.23295692
  0
VERTEX
  5
13f
  8
Layer_0
  10
207.85223
  20
188.71268
  42
0.17729025
  0
VERTEX
  5
140
  8
Layer_0
  10
206.75043
  20
186.82059
  42
0.0372783
  0
VERTEX
  5
141
  8
Layer_0
  10
205.81659
  20
186.78397
  42
0.32234084
  0
VERTEX
  5
142
  8
Layer_0
  10
205.62201
  20
186.56766
  42
0.34793267
  0
VERTEX
  5
143
  8
Layer_0
  10
205.82611
  20
186.01468
  42
0.11373224
  0
VERTEX
  5
144
  8
Layer_0
  10
206.16449
  20
185.94778
  0
VERTEX
  5
145
  8
Layer_0
  10
206.64667
  20
185.94778
  0
VERTEX
  5
146
  8
Layer_0
  10
206.64667
  20
185.84402
  42
0.026799697
  0
VERTEX
  5
147
  8
Layer_0
  10
206.67719
  20
185.4473
  0
VERTEX
  5
148
  8
Layer_0
  10
206.3537
  20
185.44412
  42
0.048708
  0
VERTEX
  5
149
  8
Layer_0
  10
205.78607
  20
185.39847
  42
0.29212925
  0
VERTEX
  5
14a
  8
Layer_0
  10
205.62006
  20
185.18094
  42
0.34740604
  0
VERTEX
  5
14b
  8
Layer_0
  10
205.82611
  20
184.64066
  42
0.11232632
  0
VERTEX
  5
14c
  8
Layer_0
  10
206.16449
  20
184.57449
  0
VERTEX
  5
14d
  8
Layer_0
  10
206.84808
  20
184.57449
  0
VERTEX
  5
14e
  8
Layer_0
  10
206.94745
  20
184.29984
  42
0.317412
  0
VERTEX
  5
14f
  8
Layer_0
  10
210.08905
  20
182.16971
  0
VERTEX
  5
150
  8
Layer_0
  10
210.41376
  20
182.17606
  0
SEQEND
  0
POLYLINE
  5
152
  8
Layer_0
  62
5
  66
1
  10
0
  20
0
  30
0
  0
VERTEX
  5
152
  8
Layer_0
  10
204.04999
  20
181.78372
  42
0.18561906
  0
VERTEX
  5
153
  8
Layer_0
  10
204.82831
  20
182.50076
  42
0.19979127
  0
VERTEX
  5
154
  8
Layer_0
  10
205.13202
  20
184.42435
  42
0.35281493
  0
VERTEX
  5
155
  8
Layer_0
  10
204.67035
  20
184.78201
  42
0.21667757
  0
VERTEX
  5
156
  8
Layer_0
  10
204.29218
  20
184.58255
  0
VERTEX
  5
157
  8
Layer_0
  10
204.19427
  20
184.48904
  42
-0.23226929
  0
VERTEX
  5
158
  8
Layer_0
  10
203.12738
  20
184.08133
  42
-0.37604133
  0
VERTEX
  5
159
  8
Layer_0
  10
202.69281
  20
184.48294
  42
-0.17576123
  0
VERTEX
  5
15a
  8
Layer_0
  10
202.98798
  20
184.93607
  42
-0.0019821358
  0
VERTEX
  5
15b
  8
Layer_0
  10
203.5639
  20
185.45218
  0
VERTEX
  5
15c
  8
Layer_0
  10
203.86395
  20
185.75638
  42
0.10523478
  0
VERTEX
  5
15d
  8
Layer_0
  10
204.60248
  20
186.91605
  42
0.39089251
  0
VERTEX
  5
15e
  8
Layer_0
  10
203.68866
  20
188.97537
  42
0.14419209
  0
VERTEX
  5
15f
  8
Layer_0
  10
201.09027
  20
189.27615
  42
0.16541625
  0
VERTEX
  5
160
  8
Layer_0
  10
198.49017
  20
187.96756
  42
0.17948038
  0
VERTEX
  5
161
  8
Layer_0
  10
198.15179
  20
187.27835
  42
0.32379404
  0
VERTEX
  5
162
  8
Layer_0
  10
198.78021
  20
186.58426
  42
0.22425632
  0
VERTEX
  5
163
  8
Layer_0
  10
199.27484
  20
186.68021
  0
VERTEX
  5
164
  8
Layer_0
  10
199.50287
  20
186.86917
  42
-0.084864366
  0
VERTEX
  5
165
  8
Layer_0
  10
200.00336
  20
187.21097
  42
-0.26982265
  0
VERTEX
  5
166
  8
Layer_0
  10
200.82513
  20
187.07376
  42
-0.2449662
  0
VERTEX
  5
167
  8
Layer_0
  10
200.98383
  20
186.40335
  42
-0.096822928
  0
VERTEX
  5
168
  8
Layer_0
  10
200.38715
  20
185.2576
  42
-0.04886225
  0
VERTEX
  5
169
  8
Layer_0
  10
198.56049
  20
183.29349
  0
VERTEX
  5
16a
  8
Layer_0
  10
198.37274
  20
183.10965
  42
0.22173105
  0
VERTEX
  5
16b
  8
Layer_0
  10
198.09686
  20
182.64578
  42
0.34821652
  0
VERTEX
  5
16c
  8
Layer_0
  10
198.31146
  20
182.3782
  42
0.075900706
  0
VERTEX
  5
16d
  8
Layer_0
  10
198.64618
  20
182.3345
  0
VERTEX
  5
16e
  8
Layer_0
  10
202.80267
  20
182.3345
  42
-0.21788238
  0
VERTEX
  5
16f
  8
Layer_0
  10
203.30389
  20
182.20633
  42
-0.012217655
  0
VERTEX
  5
170
  8
Layer_0
  10
203.52289
  20
181.91727
  0
VERTEX
  5
171
  8
Layer_0
  10
203.62054
  20
181.82474
  42
0.19676856
  0
VERTEX
  5
172
  8
Layer_0
  10
204.04999
  20
181.78372
  0
SEQEND
  0
POLYLINE
  5
174
  8
Layer_0
  62
5
  66
1
  10
0
  20
0
  30
0
  0
VERTEX
  5
174
  8
Layer_0
  10
190.48651
  20
183.95804
  42
-0.19330554
  0
VERTEX
  5
175
  8
Layer_0
  10
190.13055
  20
184.32425
  42
-0.13800923
  0
VERTEX
  5
176
  8
Layer_0
  10
189.68378
  20
187.01663
  42
-0.22093972
  0
VERTEX
  5
177
  8
Layer_0
  10
189.96771
  20
187.49881
  42
-0.31206272
  0
VERTEX
  5
178
  8
Layer_0
  10
190.53192
  20
187.43704
  42
-0.13769553
  0
VERTEX
  5
179
  8
Layer_0
  10
190.93842
  20
186.65799
  42
-0.098380652
  0
VERTEX
  5
17a
  8
Layer_0
  10
191.1579
  20
184.48636
  42
-0.21699981
  0
VERTEX
  5
17b
  8
Layer_0
  10
190.88007
  20
183.99515
  42
-0.20822898
  0
VERTEX
  5
17c
  8
Layer_0
  10
190.48651
  20
183.95804
  0
SEQEND
  0
POLYLINE
  5
17e
  8
Layer_0
  62
5
  70
1
  66
1
  10
0
  20
0
  30
0
  0
VERTEX
  5
17e
  8
Layer_0
  10
196.02777
  20
180.14383
  42
0.19345944
  0
VERTEX
  5
17f
  8
Layer_0
  10
196.78314
  20
180.74808
  42
0.15329809
  0
VERTEX
  5
180
  8
Layer_0
  10
197.54999
  20
183.35062
  42
0.23645249
  0
VERTEX
  5
181
  8
Layer_0
  10
196.74554
  20
184.90848
  42
0.37490541
  0
VERTEX
  5
182
  8
Layer_0
  10
194.9389
  20
184.64163
  42
0.38761695
  0
VERTEX
  5
183
  8
Layer_0
  10
194.97137
  20
182.68631
  42
0.1194855
  0
VERTEX
  5
184
  8
Layer_0
  10
195.67133
  20
182.27347
  0
VERTEX
  5
185
  8
Layer_0
  10
195.76215
  20
182.22513
  42
-0.30932908
  0
VERTEX
  5
186
  8
Layer_0
  10
195.85223
  20
181.80032
  42
-0.070405174
  0
VERTEX
  5
187
  8
Layer_0
  10
195.35077
  20
180.76126
  0
VERTEX
  5
188
  8
Layer_0
  10
195.30731
  20
180.66092
  42
0.3199563
  0
VERTEX
  5
189
  8
Layer_0
  10
195.47894
  20
180.27151
  42
0.21487579
  0
SEQEND
  0
POLYLINE
  5
18b
  8
Layer_1
  62
3
  66
1
  10
0
  20
0
  30
0
  0
VERTEX
  5
18b
  8
Layer_1
  10
256.75
  20
174.5
  0
VERTEX
  5
18c
  8
Layer_1
  10
222.25
  20
174.5
  0
VERTEX
  5
18d
  8
Layer_1
  10
222.25
  20
197.5
  0
VERTEX
  5
18e
  8
Layer_1
  10
256.75
  20
197.5
  0
VERTEX
  5
18f
  8
Layer_1
  10
256.75
  20
174.5
  0
SEQEND
  0
POLYLINE
  5
191
  8
Layer_0
  62
5
  66
1
  10
0
  20
0
  30
0
  0
VERTEX
  5
191
  8
Layer_0
  10
230.28705
  20
182.18216
  42
0.13497702
  0
VERTEX
  5
192
  8
Layer_0
  10
231.92596
  20
182.77713
  42
0.28615946
  0
VERTEX
  5
193
  8
Layer_0
  10
233.39691
  20
186.08475
  42
0.20681979
  0
VERTEX
  5
194
  8
Layer_0
  10
231.95941
  20
188.66068
  42
0.30575417
  0
VERTEX
  5
195
  8
Layer_0
  10
228.06317
  20
188.89383
  42
0.21859097
  0
VERTEX
  5
196
  8
Layer_0
  10
226.61273
  20
186.64969
  42
0.13376778
  0
VERTEX
  5
197
  8
Layer_0
  10
226.83051
  20
184.27396
  42
0.33455159
  0
VERTEX
  5
198
  8
Layer_0
  10
230.28705
  20
182.18216
  0
SEQEND
  0
POLYLINE
  5
19a
  8
Layer_0
  62
5
  66
1
  10
0
  20
0
  30
0
  0
VERTEX
  5
19a
  8
Layer_0
  10
249.91376
  20
182.17606
  42
0.096802444
  0
VERTEX
  5
19b
  8
Layer_0
  10
251.69183
  20
182.61526
  42
0.41686951
  0
VERTEX
  5
19c
  8
Layer_0
  10
252.43842
  20
183.95828
  42
0.38895192
  0
VERTEX
  5
19d
  8
Layer_0
  10
252.11395
  20
184.14993
  42
0.08174484
  0
VERTEX
  5
19e
  8
Layer_0
  10
251.75995
  20
183.89163
  0
VERTEX
  5
19f
  8
Layer_0
  10
251.62006
  20
183.79617
  42
-0.14977755
  0
VERTEX
  5
1a0
  8
Layer_0
  10
250.60223
  20
183.57352
  42
-0.28342444
  0
VERTEX
  5
1a1
  8
Layer_0
  10
249.21625
  20
184.38651
  0
VERTEX
  5
1a2
  8
Layer_0
  10
249.08856
  20
184.63553
  42
-0.0028342791
  0
VERTEX
  5
1a3
  8
Layer_0
  10
250.45526
  20
184.66605
  0
VERTEX
  5
1a4
  8
Layer_0
  10
250.58173
  20
184.68436
  42
0.39672533
  0
VERTEX
  5
1a5
  8
Layer_0
  10
250.83417
  20
185.02005
  42
0.22098188
  0
VERTEX
  5
1a6
  8
Layer_0
  10
250.73886
  20
185.35219
  42
0.22096943
  0
VERTEX
  5
1a7
  8
Layer_0
  10
250.42157
  20
185.48904
  42
0.011428749
  0
VERTEX
  5
1a8
  8
Layer_0
  10
248.83832
  20
185.48392
  0
VERTEX
  5
1a9
  8
Layer_0
  10
248.79877
  20
185.78909
  42
-0.012662193
  0
VERTEX
  5
1aa
  8
Layer_0
  10
248.77728
  20
186.00882
  0
VERTEX
  5
1ab
  8
Layer_0
  10
249.19403
  20
186.01614
  0
VERTEX
  5
1ac
  8
Layer_0
  10
250.29706
  20
186.02103
  42
0.17195159
  0
VERTEX
  5
1ad
  8
Layer_0
  10
250.73358
  20
186.11868
  42
0.29956201
  0
VERTEX
  5
1ae
  8
Layer_0
  10
250.76727
  20
186.69193
  42
0.25472504
  0
VERTEX
  5
1af
  8
Layer_0
  10
250.27264
  20
186.86942
  42
0.0067105393
  0
VERTEX
  5
1b0
  8
Layer_0
  10
248.75897
  20
186.85721
  42
-0.16068714
  0
VERTEX
  5
1b1
  8
Layer_0
  10
249.04901
  20
187.68729
  42
-0.19870971
  0
VERTEX
  5
1b2
  8
Layer_0
  10
249.82172
  20
187.98172
  42
-0.22900967
  0
VERTEX
  5
1b3
  8
Layer_0
  10
250.97455
  20
187.54691
  0
VERTEX
  5
1b4
  8
Layer_0
  10
251.09662
  20
187.42972
  42
0.13189322
  0
VERTEX
  5
1b5
  8
Layer_0
  10
251.70551
  20
187.05423
  42
0.34247619
  0
VERTEX
  5
1b6
  8
Layer_0
  10
252.26019
  20
187.34988
  42
0.2129237
  0
VERTEX
  5
1b7
  8
Layer_0
  10
252.25946
  20
188.18558
  42
0.12649848
  0
VERTEX
  5
1b8
  8
Layer_0
  10
251.64594
  20
189.06595
  42
0.3155035
  0
VERTEX
  5
1b9
  8
Layer_0
  10
251.08441
  20
189.13382
  0
VERTEX
  5
1ba
  8
Layer_0
  10
250.94867
  20
189.08817
  42
-0.1750302
  0
VERTEX
  5
1bb
  8
Layer_0
  10
250.59613
  20
189.14603
  0
VERTEX
  5
1bc
  8
Layer_0
  10
250.31244
  20
189.2449
  42
0.23295692
  0
VERTEX
  5
1bd
  8
Layer_0
  10
247.35223
  20
188.71268
  42
0.17729025
  0
VERTEX
  5
1be
  8
Layer_0
  10
246.25043
  20
186.82059
  42
0.0372783
  0
VERTEX
  5
1bf
  8
Layer_0
  10
245.31659
  20
186.78397
  42
0.32234084
  0
VERTEX
  5
1c0
  8
Layer_0
  10
245.12201
  20
186.56766
  42
0.34793267
  0
VERTEX
  5
1c1
  8
Layer_0
  10
245.32611
  20
186.01468
  42
0.11373224
  0
VERTEX
  5
1c2
  8
Layer_0
  10
245.66449
  20
185.94778
  0
VERTEX
  5
1c3
  8
Layer_0
  10
246.14667
  20
185.94778
  0
VERTEX
  5
1c4
  8
Layer_0
  10
246.14667
  20
185.84402
  42
0.026799697
  0
VERTEX
  5
1c5
  8
Layer_0
  10
246.17719
  20
185.4473
  0
VERTEX
  5
1c6
  8
Layer_0
  10
245.8537
  20
185.44412
  42
0.048708
  0
VERTEX
  5
1c7
  8
Layer_0
  10
245.28607
  20
185.39847
  42
0.29212925
  0
VERTEX
  5
1c8
  8
Layer_0
  10
245.12006
  20
185.18094
  42
0.34740604
  0
VERTEX
  5
1c9
  8
Layer_0
  10
245.32611
  20
184.64066
  42
0.11232632
  0
VERTEX
  5
1ca
  8
Layer_0
  10
245.66449
  20
184.57449
  0
VERTEX
  5
1cb
  8
Layer_0
  10
246.34808
  20
184.57449
  0
VERTEX
  5
1cc
  8
Layer_0
  10
246.44745
  20
184.29984
  42
0.317412
  0
VERTEX
  5
1cd
  8
Layer_0
  10
249.58905
  20
182.16971
  0
VERTEX
  5
1ce
  8
Layer_0
  10
249.91376
  20
182.17606
  0
SEQEND
  0
POLYLINE
  5
1d0
  8
Layer_0
  62
5
  66
1
  10
0
  20
0
  30
0
  0
VERTEX
  5
1d0
  8
Layer_0
  10
241.80609
  20
182.1763
  42
0.041792895
  0
VERTEX
  5
1d1
  8
Layer_0
  10
243.7243
  20
182.40652
  42
0.21407421
  0
VERTEX
  5
1d2
  8
Layer_0
  10
244.2951
  20
182.76321
  42
0.33838375
  0
VERTEX
  5
1d3
  8
Layer_0
  10
244.20258
  20
183.3157
  42
0.15951548
  0
VERTEX
  5
1d4
  8
Layer_0
  10
243.77216
  20
183.44534
  0
VERTEX
  5
1d5
  8
Layer_0
  10
243.53802
  20
183.46365
  42
-0.1708318
  0
VERTEX
  5
1d6
  8
Layer_0
  10
242.97137
  20
183.66556
  42
-0.15865508
  0
VERTEX
  5
1d7
  8
Layer_0
  10
242.74066
  20
184.36087
  0
VERTEX
  5
1d8
  8
Layer_0
  10
242.68573
  20
186.11258
  42
-0.032240971
  0
VERTEX
  5
1d9
  8
Layer_0
  10
242.77118
  20
187.96805
  42
-0.23621529
  0
VERTEX
  5
1da
  8
Layer_0
  10
243.20453
  20
188.37088
  0
VERTEX
  5
1db
  8
Layer_0
  10
243.31366
  20
188.42191
  42
0.19842466
  0
VERTEX
  5
1dc
  8
Layer_0
  10
243.5584
  20
188.62283
  42
0.19842601
  0
VERTEX
  5
1dd
  8
Layer_0
  10
243.58612
  20
188.93826
  42
0.28074151
  0
VERTEX
  5
1de
  8
Layer_0
  10
243.22162
  20
189.26492
  42
0.081943229
  0
VERTEX
  5
1df
  8
Layer_0
  10
242.10468
  20
189.32376
  42
0.10644008
  0
VERTEX
  5
1e0
  8
Layer_0
  10
238.60394
  20
188.44485
  42
0.19241943
  0
VERTEX
  5
1e1
  8
Layer_0
  10
238.18744
  20
187.97391
  42
0.34535929
  0
VERTEX
  5
1e2
  8
Layer_0
  10
238.3725
  20
187.53104
  42
0.15327391
  0
VERTEX
  5
1e3
  8
Layer_0
  10
238.9931
  20
187.49344
  0
VERTEX
  5
1e4
  8
Layer_0
  10
239.09686
  20
187.49808
  42
-0.18325061
  0
VERTEX
  5
1e5
  8
Layer_0
  10
239.58514
  20
187.3699
  42
-0.1993972
  0
VERTEX
  5
1e6
  8
Layer_0
  10
239.71942
  20
186.91214
  42
-0.017522535
  0
VERTEX
  5
1e7
  8
Layer_0
  10
239.6767
  20
184.27542
  42
-0.19321438
  0
VERTEX
  5
1e8
  8
Layer_0
  10
239.40594
  20
183.57254
  42
-0.21991753
  0
VERTEX
  5
1e9
  8
Layer_0
  10
238.97797
  20
183.46365
  0
VERTEX
  5
1ea
  8
Layer_0
  10
238.70233
  20
183.50076
  42
0.29033671
  0
VERTEX
  5
1eb
  8
Layer_0
  10
237.99872
  20
183.314
  42
0.36903804
  0
VERTEX
  5
1ec
  8
Layer_0
  10
238.03021
  20
182.76785
  42
0.13863743
  0
VERTEX
  5
1ed
  8
Layer_0
  10
238.64838
  20
182.46927
  42
0.075931018
  0
VERTEX
  5
1ee
  8
Layer_0
  10
241.80609
  20
182.1763
  0
SEQEND
  0
POLYLINE
  5
1f0
  8
Layer_0
  62
5
  66
1
  10
0
  20
0
  30
0
  0
VERTEX
  5
1f0
  8
Layer_0
  10
229.98651
  20
183.95804
  42
-0.19330554
  0
VERTEX
  5
1f1
  8
Layer_0
  10
229.63055
  20
184.32425
  42
-0.13800923
  0
VERTEX
  5
1f2
  8
Layer_0
  10
229.18378
  20
187.01663
  42
-0.22093972
  0
VERTEX
  5
1f3
  8
Layer_0
  10
229.46771
  20
187.49881
  42
-0.31206272
  0
VERTEX
  5
1f4
  8
Layer_0
  10
230.03192
  20
187.43704
  42
-0.13769553
  0
VERTEX
  5
1f5
  8
Layer_0
  10
230.43842
  20
186.65799
  42
-0.098380652
  0
VERTEX
  5
1f6
  8
Layer_0
  10
230.6579
  20
184.48636
  42
-0.21699981
  0
VERTEX
  5
1f7
  8
Layer_0
  10
230.38007
  20
183.99515
  42
-0.20822898
  0
VERTEX
  5
1f8
  8
Layer_0
  10
229.98651
  20
183.95804
  0
SEQEND
  0
POLYLINE
  5
1fa
  8
Layer_0
  62
5
  70
1
  66
1
  10
0
  20
0
  30
0
  0
VERTEX
  5
1fa
  8
Layer_0
  10
235.52777
  20
180.14383
  42
0.19345944
  0
VERTEX
  5
1fb
  8
Layer_0
  10
236.28314
  20
180.74808
  42
0.15329809
  0
VERTEX
  5
1fc
  8
Layer_0
  10
237.04999
  20
183.35062
  42
0.23645249
  0
VERTEX
  5
1fd
  8
Layer_0
  10
236.24554
  20
184.90848
  42
0.37490541
  0
VERTEX
  5
1fe
  8
Layer_0
  10
234.4389
  20
184.64163
  42
0.38761695
  0
VERTEX
  5
1ff
  8
Layer_0
  10
234.47137
  20
182.68631
  42
0.1194855
  0
VERTEX
  5
200
  8
Layer_0
  10
235.17133
  20
182.27347
  0
VERTEX
  5
201
  8
Layer_0
  10
235.26215
  20
182.22513
  42
-0.30932908
  0
VERTEX
  5
202
  8
Layer_0
  10
235.35223
  20
181.80032
  42
-0.070405174
  0
VERTEX
  5
203
  8
Layer_0
  10
234.85077
  20
180.76126
  0
VERTEX
  5
204
  8
Layer_0
  10
234.80731
  20
180.66092
  42
0.3199563
  0
VERTEX
  5
205
  8
Layer_0
  10
234.97894
  20
180.27151
  42
0.21487579
  0
SEQEND
  0
POLYLINE
  5
207
  8
Layer_1
  62
3
  66
1
  10
0
  20
0
  30
0
  0
VERTEX
  5
207
  8
Layer_1
  10
177.75
  20
202.5
  0
VERTEX
  5
208
  8
Layer_1
  10
143.25
  20
202.5
  0
VERTEX
  5
209
  8
Layer_1
  10
143.25
  20
225.5
  0
VERTEX
  5
20a
  8
Layer_1
  10
177.75
  20
225.5
  0
VERTEX
  5
20b
  8
Layer_1
  10
177.75
  20
202.5
  0
SEQEND
  0
POLYLINE
  5
20d
  8
Layer_0
  62
5
  66
1
  10
0
  20
0
  30
0
  0
VERTEX
  5
20d
  8
Layer_0
  10
166.85126
  20
210.17606
  42
0.096801491
  0
VERTEX
  5
20e
  8
Layer_0
  10
168.62933
  20
210.61526
  42
0.41687273
  0
VERTEX
  5
20f
  8
Layer_0
  10
169.37592
  20
211.95828
  42
0.3889599
  0
VERTEX
  5
210
  8
Layer_0
  10
169.05145
  20
212.14993
  42
0.081750919
  0
VERTEX
  5
211
  8
Layer_0
  10
168.69745
  20
211.89163
  0
VERTEX
  5
212
  8
Layer_0
  10
168.55756
  20
211.79617
  42
-0.14977967
  0
VERTEX
  5
213
  8
Layer_0
  10
167.53973
  20
211.57352
  42
-0.28342471
  0
VERTEX
  5
214
  8
Layer_0
  10
166.15375
  20
212.38651
  0
VERTEX
  5
215
  8
Layer_0
  10
166.02606
  20
212.63553
  42
-0.0028342834
  0
VERTEX
  5
216
  8
Layer_0
  10
167.39276
  20
212.66605
  0
VERTEX
  5
217
  8
Layer_0
  10
167.51923
  20
212.68436
  42
0.39672603
  0
VERTEX
  5
218
  8
Layer_0
  10
167.77167
  20
213.02005
  42
0.22097402
  0
VERTEX
  5
219
  8
Layer_0
  10
167.67636
  20
213.35219
  42
0.220976
  0
VERTEX
  5
21a
  8
Layer_0
  10
167.35907
  20
213.48904
  42
0.011428444
  0
VERTEX
  5
21b
  8
Layer_0
  10
165.77582
  20
213.48392
  0
VERTEX
  5
21c
  8
Layer_0
  10
165.73627
  20
213.78909
  42
-0.012665416
  0
VERTEX
  5
21d
  8
Layer_0
  10
165.71478
  20
214.00882
  0
VERTEX
  5
21e
  8
Layer_0
  10
166.13153
  20
214.01614
  0
VERTEX
  5
21f
  8
Layer_0
  10
167.23456
  20
214.02103
  42
0.17194508
  0
VERTEX
  5
220
  8
Layer_0
  10
167.67108
  20
214.11868
  42
0.2995544
  0
VERTEX
  5
221
  8
Layer_0
  10
167.70477
  20
214.69193
  42
0.25472464
  0
VERTEX
  5
222
  8
Layer_0
  10
167.21014
  20
214.86942
  42
0.0067105291
  0
VERTEX
  5
223
  8
Layer_0
  10
165.69647
  20
214.85721
  42
-0.16068792
  0
VERTEX
  5
224
  8
Layer_0
  10
165.98651
  20
215.68729
  42
-0.19871099
  0
VERTEX
  5
225
  8
Layer_0
  10
166.75922
  20
215.98172
  42
-0.22900991
  0
VERTEX
  5
226
  8
Layer_0
  10
167.91205
  20
215.54691
  0
VERTEX
  5
227
  8
Layer_0
  10
168.03412
  20
215.42972
  42
0.13189339
  0
VERTEX
  5
228
  8
Layer_0
  10
168.64301
  20
215.05423
  42
0.34247256
  0
VERTEX
  5
229
  8
Layer_0
  10
169.19769
  20
215.34988
  42
0.21292292
  0
VERTEX
  5
22a
  8
Layer_0
  10
169.19696
  20
216.18558
  42
0.12649864
  0
VERTEX
  5
22b
  8
Layer_0
  10
168.58344
  20
217.06595
  42
0.31550187
  0
VERTEX
  5
22c
  8
Layer_0
  10
168.02191
  20
217.13382
  0
VERTEX
  5
22d
  8
Layer_0
  10
167.88617
  20
217.08817
  42
-0.17502984
  0
VERTEX
  5
22e
  8
Layer_0
  10
167.53363
  20
217.14603
  0
VERTEX
  5
22f
  8
Layer_0
  10
167.24994
  20
217.2449
  42
0.23295688
  0
VERTEX
  5
230
  8
Layer_0
  10
164.28973
  20
216.71268
  42
0.17729027
  0
VERTEX
  5
231
  8
Layer_0
  10
163.18793
  20
214.82059
  42
0.03727882
  0
VERTEX
  5
232
  8
Layer_0
  10
162.25409
  20
214.78397
  42
0.32359035
  0
VERTEX
  5
233
  8
Layer_0
  10
162.05951
  20
214.56766
  42
0.34792942
  0
VERTEX
  5
234
  8
Layer_0
  10
162.26361
  20
214.01468
  42
0.11373408
  0
VERTEX
  5
235
  8
Layer_0
  10
162.60199
  20
213.94778
  0
VERTEX
  5
236
  8
Layer_0
  10
163.08417
  20
213.94778
  0
VERTEX
  5
237
  8
Layer_0
  10
163.08417
  20
213.84402
  42
0.026799769
  0
VERTEX
  5
238
  8
Layer_0
  10
163.11469
  20
213.4473
  0
VERTEX
  5
239
  8
Layer_0
  10
162.7912
  20
213.44412
  42
0.04870642
  0
VERTEX
  5
23a
  8
Layer_0
  10
162.22357
  20
213.39847
  42
0.29214234
  0
VERTEX
  5
23b
  8
Layer_0
  10
162.05756
  20
213.18094
  42
0.34741079
  0
VERTEX
  5
23c
  8
Layer_0
  10
162.26361
  20
212.64066
  42
0.11232214
  0
VERTEX
  5
23d
  8
Layer_0
  10
162.60199
  20
212.57449
  0
VERTEX
  5
23e
  8
Layer_0
  10
163.28558
  20
212.57449
  0
VERTEX
  5
23f
  8
Layer_0
  10
163.38495
  20
212.29984
  42
0.31741173
  0
VERTEX
  5
240
  8
Layer_0
  10
166.52655
  20
210.16971
  0
VERTEX
  5
241
  8
Layer_0
  10
166.85126
  20
210.17606
  0
SEQEND
  0
POLYLINE
  5
243
  8
Layer_0
  62
5
  70
1
  66
1
  10
0
  20
0
  30
0
  0
VERTEX
  5
243
  8
Layer_0
  10
155.68109
  20
210.1763
  42
0.041793972
  0
VERTEX
  5
244
  8
Layer_0
  10
157.5993
  20
210.40652
  42
0.21408096
  0
VERTEX
  5
245
  8
Layer_0
  10
158.1701
  20
210.76321
  42
0.33884908
  0
VERTEX
  5
246
  8
Layer_0
  10
158.07733
  20
211.3157
  42
0.15981699
  0
VERTEX
  5
247
  8
Layer_0
  10
157.64716
  20
211.44534
  0
VERTEX
  5
248
  8
Layer_0
  10
157.41302
  20
211.46365
  42
-0.17083093
  0
VERTEX
  5
249
  8
Layer_0
  10
156.84637
  20
211.66556
  42
-0.15873732
  0
VERTEX
  5
24a
  8
Layer_0
  10
156.61566
  20
212.36087
  0
VERTEX
  5
24b
  8
Layer_0
  10
156.56073
  20
214.11258
  42
-0.032241721
  0
VERTEX
  5
24c
  8
Layer_0
  10
156.64618
  20
215.96805
  42
-0.23621517
  0
VERTEX
  5
24d
  8
Layer_0
  10
157.07953
  20
216.37088
  0
VERTEX
  5
24e
  8
Layer_0
  10
157.18866
  20
216.42191
  42
0.19839277
  0
VERTEX
  5
24f
  8
Layer_0
  10
157.43338
  20
216.62283
  42
0.19839323
  0
VERTEX
  5
250
  8
Layer_0
  10
157.46112
  20
216.93826
  42
0.28066911
  0
VERTEX
  5
251
  8
Layer_0
  10
157.09662
  20
217.26492
  42
0.081943229
  0
VERTEX
  5
252
  8
Layer_0
  10
155.97968
  20
217.32376
  42
0.10644006
  0
VERTEX
  5
253
  8
Layer_0
  10
152.47894
  20
216.44485
  42
0.19241855
  0
VERTEX
  5
254
  8
Layer_0
  10
152.06244
  20
215.97391
  42
0.3453554
  0
VERTEX
  5
255
  8
Layer_0
  10
152.2475
  20
215.53104
  42
0.15327468
  0
VERTEX
  5
256
  8
Layer_0
  10
152.8681
  20
215.49344
  0
VERTEX
  5
257
  8
Layer_0
  10
152.97186
  20
215.49808
  42
-0.18325278
  0
VERTEX
  5
258
  8
Layer_0
  10
153.46014
  20
215.3699
  42
-0.19863072
  0
VERTEX
  5
259
  8
Layer_0
  10
153.59442
  20
214.91214
  42
-0.017522565
  0
VERTEX
  5
25a
  8
Layer_0
  10
153.5517
  20
212.27542
  42
-0.19321265
  0
VERTEX
  5
25b
  8
Layer_0
  10
153.28094
  20
211.57254
  42
-0.21992715
  0
VERTEX
  5
25c
  8
Layer_0
  10
152.85272
  20
211.46365
  0
VERTEX
  5
25d
  8
Layer_0
  10
152.57733
  20
211.50076
  42
0.29034105
  0
VERTEX
  5
25e
  8
Layer_0
  10
151.87372
  20
211.314
  42
0.36904271
  0
VERTEX
  5
25f
  8
Layer_0
  10
151.90521
  20
210.76785
  42
0.13853562
  0
VERTEX
  5
260
  8
Layer_0
  10
152.52313
  20
210.46927
  42
0.075916443
  0
SEQEND
  0
POLYLINE
  5
262
  8
Layer_1
  62
3
  66
1
  10
0
  20
0
  30
0
  0
VERTEX
  5
262
  8
Layer_1
  10
217.25
  20
202.5
  0
VERTEX
  5
263
  8
Layer_1
  10
182.75
  20
202.5
  0
VERTEX
  5
264
  8
Layer_1
  10
182.75
  20
225.5
  0
VERTEX
  5
265
  8
Layer_1
  10
217.25
  20
225.5
  0
VERTEX
  5
266
  8
Layer_1
  10
217.25
  20
202.5
  0
SEQEND
  0
POLYLINE
  5
268
  8
Layer_0
  62
5
  66
1
  10
0
  20
0
  30
0
  0
VERTEX
  5
268
  8
Layer_0
  10
206.35126
  20
210.17606
  42
0.096801491
  0
VERTEX
  5
269
  8
Layer_0
  10
208.12933
  20
210.61526
  42
0.41687273
  0
VERTEX
  5
26a
  8
Layer_0
  10
208.87592
  20
211.95828
  42
0.3889599
  0
VERTEX
  5
26b
  8
Layer_0
  10
208.55145
  20
212.14993
  42
0.081750919
  0
VERTEX
  5
26c
  8
Layer_0
  10
208.19745
  20
211.89163
  0
VERTEX
  5
26d
  8
Layer_0
  10
208.05756
  20
211.79617
  42
-0.14977967
  0
VERTEX
  5
26e
  8
Layer_0
  10
207.03973
  20
211.57352
  42
-0.28342471
  0
VERTEX
  5
26f
  8
Layer_0
  10
205.65375
  20
212.38651
  0
VERTEX
  5
270
  8
Layer_0
  10
205.52606
  20
212.63553
  42
-0.0028342834
  0
VERTEX
  5
271
  8
Layer_0
  10
206.89276
  20
212.66605
  0
VERTEX
  5
272
  8
Layer_0
  10
207.01923
  20
212.68436
  42
0.39672603
  0
VERTEX
  5
273
  8
Layer_0
  10
207.27167
  20
213.02005
  42
0.22097402
  0
VERTEX
  5
274
  8
Layer_0
  10
207.17636
  20
213.35219
  42
0.220976
  0
VERTEX
  5
275
  8
Layer_0
  10
206.85907
  20
213.48904
  42
0.011428444
  0
VERTEX
  5
276
  8
Layer_0
  10
205.27582
  20
213.48392
  0
VERTEX
  5
277
  8
Layer_0
  10
205.23627
  20
213.78909
  42
-0.012665416
  0
VERTEX
  5
278
  8
Layer_0
  10
205.21478
  20
214.00882
  0
VERTEX
  5
279
  8
Layer_0
  10
205.63153
  20
214.01614
  0
VERTEX
  5
27a
  8
Layer_0
  10
206.73456
  20
214.02103
  42
0.17194508
  0
VERTEX
  5
27b
  8
Layer_0
  10
207.17108
  20
214.11868
  42
0.2995544
  0
VERTEX
  5
27c
  8
Layer_0
  10
207.20477
  20
214.69193
  42
0.25472464
  0
VERTEX
  5
27d
  8
Layer_0
  10
206.71014
  20
214.86942
  42
0.0067105291
  0
VERTEX
  5
27e
  8
Layer_0
  10
205.19647
  20
214.85721
  42
-0.16068792
  0
VERTEX
  5
27f
  8
Layer_0
  10
205.48651
  20
215.68729
  42
-0.19871099
  0
VERTEX
  5
280
  8
Layer_0
  10
206.25922
  20
215.98172
  42
-0.22900991
  0
VERTEX
  5
281
  8
Layer_0
  10
207.41205
  20
215.54691
  0
VERTEX
  5
282
  8
Layer_0
  10
207.53412
  20
215.42972
  42
0.13189339
  0
VERTEX
  5
283
  8
Layer_0
  10
208.14301
  20
215.05423
  42
0.34247256
  0
VERTEX
  5
284
  8
Layer_0
  10
208.69769
  20
215.34988
  42
0.21292292
  0
VERTEX
  5
285
  8
Layer_0
  10
208.69696
  20
216.18558
  42
0.12649864
  0
VERTEX
  5
286
  8
Layer_0
  10
208.08344
  20
217.06595
  42
0.31550187
  0
VERTEX
  5
287
  8
Layer_0
  10
207.52191
  20
217.13382
  0
VERTEX
  5
288
  8
Layer_0
  10
207.38617
  20
217.08817
  42
-0.17502984
  0
VERTEX
  5
289
  8
Layer_0
  10
207.03363
  20
217.14603
  0
VERTEX
  5
28a
  8
Layer_0
  10
206.74994
  20
217.2449
  42
0.23295688
  0
VERTEX
  5
28b
  8
Layer_0
  10
203.78973
  20
216.71268
  42
0.17729027
  0
VERTEX
  5
28c
  8
Layer_0
  10
202.68793
  20
214.82059
  42
0.03727882
  0
VERTEX
  5
28d
  8
Layer_0
  10
201.75409
  20
214.78397
  42
0.32359035
  0
VERTEX
  5
28e
  8
Layer_0
  10
201.55951
  20
214.56766
  42
0.34792942
  0
VERTEX
  5
28f
  8
Layer_0
  10
201.76361
  20
214.01468
  42
0.11373408
  0
VERTEX
  5
290
  8
Layer_0
  10
202.10199
  20
213.94778
  0
VERTEX
  5
291
  8
Layer_0
  10
202.58417
  20
213.94778
  0
VERTEX
  5
292
  8
Layer_0
  10
202.58417
  20
213.84402
  42
0.026799769
  0
VERTEX
  5
293
  8
Layer_0
  10
202.61469
  20
213.4473
  0
VERTEX
  5
294
  8
Layer_0
  10
202.2912
  20
213.44412
  42
0.04870642
  0
VERTEX
  5
295
  8
Layer_0
  10
201.72357
  20
213.39847
  42
0.29214234
  0
VERTEX
  5
296
  8
Layer_0
  10
201.55756
  20
213.18094
  42
0.34741079
  0
VERTEX
  5
297
  8
Layer_0
  10
201.76361
  20
212.64066
  42
0.11232214
  0
VERTEX
  5
298
  8
Layer_0
  10
202.10199
  20
212.57449
  0
VERTEX
  5
299
  8
Layer_0
  10
202.78558
  20
212.57449
  0
VERTEX
  5
29a
  8
Layer_0
  10
202.88495
  20
212.29984
  42
0.31741173
  0
VERTEX
  5
29b
  8
Layer_0
  10
206.02655
  20
210.16971
  0
VERTEX
  5
29c
  8
Layer_0
  10
206.35126
  20
210.17606
  0
SEQEND
  0
POLYLINE
  5
29e
  8
Layer_0
  62
5
  70
1
  66
1
  10
0
  20
0
  30
0
  0
VERTEX
  5
29e
  8
Layer_0
  10
196.86249
  20
209.78372
  42
0.1855926
  0
VERTEX
  5
29f
  8
Layer_0
  10
197.64081
  20
210.50076
  42
0.19975453
  0
VERTEX
  5
2a0
  8
Layer_0
  10
197.94452
  20
212.42435
  42
0.3525149
  0
VERTEX
  5
2a1
  8
Layer_0
  10
197.48285
  20
212.78201
  42
0.21673527
  0
VERTEX
  5
2a2
  8
Layer_0
  10
197.10468
  20
212.58255
  0
VERTEX
  5
2a3
  8
Layer_0
  10
197.00677
  20
212.48904
  42
-0.23226925
  0
VERTEX
  5
2a4
  8
Layer_0
  10
195.93988
  20
212.08133
  42
-0.37604157
  0
VERTEX
  5
2a5
  8
Layer_0
  10
195.50531
  20
212.48294
  42
-0.17576187
  0
VERTEX
  5
2a6
  8
Layer_0
  10
195.80048
  20
212.93607
  42
-0.0020328887
  0
VERTEX
  5
2a7
  8
Layer_0
  10
196.3764
  20
213.45218
  0
VERTEX
  5
2a8
  8
Layer_0
  10
196.67645
  20
213.75638
  42
0.10499785
  0
VERTEX
  5
2a9
  8
Layer_0
  10
197.41498
  20
214.91605
  42
0.3908925
  0
VERTEX
  5
2aa
  8
Layer_0
  10
196.50116
  20
216.97537
  42
0.14419179
  0
VERTEX
  5
2ab
  8
Layer_0
  10
193.90277
  20
217.27615
  42
0.16541664
  0
VERTEX
  5
2ac
  8
Layer_0
  10
191.30267
  20
215.96756
  42
0.17947881
  0
VERTEX
  5
2ad
  8
Layer_0
  10
190.96429
  20
215.27835
  42
0.32379431
  0
VERTEX
  5
2ae
  8
Layer_0
  10
191.59271
  20
214.58426
  42
0.22425283
  0
VERTEX
  5
2af
  8
Layer_0
  10
192.08734
  20
214.68021
  0
VERTEX
  5
2b0
  8
Layer_0
  10
192.31537
  20
214.86917
  42
-0.084937801
  0
VERTEX
  5
2b1
  8
Layer_0
  10
192.81586
  20
215.21097
  42
-0.2698235
  0
VERTEX
  5
2b2
  8
Layer_0
  10
193.63763
  20
215.07376
  42
-0.24496764
  0
VERTEX
  5
2b3
  8
Layer_0
  10
193.79633
  20
214.40335
  42
-0.096822705
  0
VERTEX
  5
2b4
  8
Layer_0
  10
193.19965
  20
213.2576
  42
-0.04886334
  0
VERTEX
  5
2b5
  8
Layer_0
  10
191.37299
  20
211.29349
  0
VERTEX
  5
2b6
  8
Layer_0
  10
191.18524
  20
211.10965
  42
0.22173021
  0
VERTEX
  5
2b7
  8
Layer_0
  10
190.90936
  20
210.64578
  42
0.34822571
  0
VERTEX
  5
2b8
  8
Layer_0
  10
191.12396
  20
210.3782
  42
0.075898409
  0
VERTEX
  5
2b9
  8
Layer_0
  10
191.45868
  20
210.3345
  0
VERTEX
  5
2ba
  8
Layer_0
  10
195.61517
  20
210.3345
  42
-0.21782888
  0
VERTEX
  5
2bb
  8
Layer_0
  10
196.11639
  20
210.20633
  42
-0.012214767
  0
VERTEX
  5
2bc
  8
Layer_0
  10
196.33539
  20
209.91727
  0
VERTEX
  5
2bd
  8
Layer_0
  10
196.43304
  20
209.82474
  42
0.19682617
  0
SEQEND
  0
POLYLINE
  5
2bf
  8
Layer_1
  62
3
  66
1
  10
0
  20
0
  30
0
  0
VERTEX
  5
2bf
  8
Layer_1
  10
215.25
  20
223.5
  0
VERTEX
  5
2c0
  8
Layer_1
  10
184.75
  20
223.5
  0
VERTEX
  5
2c1
  8
Layer_1
  10
184.75
  20
204.5
  0
VERTEX
  5
2c2
  8
Layer_1
  10
215.25
  20
204.5
  0
VERTEX
  5
2c3
  8
Layer_1
  10
215.25
  20
223.5
  0
SEQEND
  0
POLYLINE
  5
2c5
  8
Layer_1
  62
3
  66
1
  10
0
  20
0
  30
0
  0
VERTEX
  5
2c5
  8
Layer_1
  10
175.75
  20
223.5
  0
VERTEX
  5
2c6
  8
Layer_1
  10
145.25
  20
223.5
  0
VERTEX
  5
2c7
  8
Layer_1
  10
145.25
  20
204.5
  0
VERTEX
  5
2c8
  8
Layer_1
  10
175.75
  20
204.5
  0
VERTEX
  5
2c9
  8
Layer_1
  10
175.75
  20
223.5
  0
SEQEND
  0
POLYLINE
  5
2cb
  8
Layer_1
  62
3
  66
1
  10
0
  20
0
  30
0
  0
VERTEX
  5
2cb
  8
Layer_1
  10
254.75
  20
195.5
  0
VERTEX
  5
2cc
  8
Layer_1
  10
224.25
  20
195.5
  0
VERTEX
  5
2cd
  8
Layer_1
  10
224.25
  20
176.5
  0
VERTEX
  5
2ce
  8
Layer_1
  10
254.75
  20
176.5
  0
VERTEX
  5
2cf
  8
Layer_1
  10
254.75
  20
195.5
  0
SEQEND
  0
POLYLINE
  5
2d1
  8
Layer_1
  62
3
  66
1
  10
0
  20
0
  30
0
  0
VERTEX
  5
2d1
  8
Layer_1
  10
215.25
  20
195.5
  0
VERTEX
  5
2d2
  8
Layer_1
  10
184.75
  20
195.5
  0
VERTEX
  5
2d3
  8
Layer_1
  10
184.75
  20
176.5
  0
VERTEX
  5
2d4
  8
Layer_1
  10
215.25
  20
176.5
  0
VERTEX
  5
2d5
  8
Layer_1
  10
215.25
  20
195.5
  0
SEQEND
  0
POLYLINE
  5
2d7
  8
Layer_1
  62
3
  66
1
  10
0
  20
0
  30
0
  0
VERTEX
  5
2d7
  8
Layer_1
  10
175.75
  20
195.5
  0
VERTEX
  5
2d8
  8
Layer_1
  10
145.25
  20
195.5
  0
VERTEX
  5
2d9
  8
Layer_1
  10
145.25
  20
176.5
  0
VERTEX
  5
2da
  8
Layer_1
  10
175.75
  20
176.5
  0
VERTEX
  5
2db
  8
Layer_1
  10
175.75
  20
195.5
  0
SEQEND
  0
POLYLINE
  5
2dd
  8
Layer_2
  62
1
  66
1
  10
0
  20
0
  30
0
  0
VERTEX
  5
2dd
  8
Layer_2
  10
177.75
  20
174.5
  0
VERTEX
  5
2de
  8
Layer_2
  10
143.25
  20
174.5
  0
VERTEX
  5
2df
  8
Layer_2
  10
143.25
  20
197.5
  0
VERTEX
  5
2e0
  8
Layer_2
  10
177.75
  20
197.5
  0
VERTEX
  5
2e1
  8
Layer_2
  10
177.75
  20
174.5
  0
SEQEND
  0
POLYLINE
  5
2e3
  8
Layer_2
  62
1
  66
1
  10
0
  20
0
  30
0
  0
VERTEX
  5
2e3
  8
Layer_2
  10
217.25
  20
174.5
  0
VERTEX
  5
2e4
  8
Layer_2
  10
182.75
  20
174.5
  0
VERTEX
  5
2e5
  8
Layer_2
  10
182.75
  20
197.5
  0
VERTEX
  5
2e6
  8
Layer_2
  10
217.25
  20
197.5
  0
VERTEX
  5
2e7
  8
Layer_2
  10
217.25
  20
174.5
  0
SEQEND
  0
POLYLINE
  5
2e9
  8
Layer_2
  62
1
  66
1
  10
0
  20
0
  30
0
  0
VERTEX
  5
2e9
  8
Layer_2
  10
256.75
  20
174.5
  0
VERTEX
  5
2ea
  8
Layer_2
  10
222.25
  20
174.5
  0
VERTEX
  5
2eb
  8
Layer_2
  10
222.25
  20
197.5
  0
VERTEX
  5
2ec
  8
Layer_2
  10
256.75
  20
197.5
  0
VERTEX
  5
2ed
  8
Layer_2
  10
256.75
  20
174.5
  0
SEQEND
  0
POLYLINE
  5
2ef
  8
Layer_2
  62
1
  66
1
  10
0
  20
0
  30
0
  0
VERTEX
  5
2ef
  8
Layer_2
  10
177.75
  20
202.5
  0
VERTEX
  5
2f0
  8
Layer_2
  10
143.25
  20
202.5
  0
VERTEX
  5
2f1
  8
Layer_2
  10
143.25
  20
225.5
  0
VERTEX
  5
2f2
  8
Layer_2
  10
177.75
  20
225.5
  0
VERTEX
  5
2f3
  8
Layer_2
  10
177.75
  20
202.5
  0
SEQEND
  0
POLYLINE
  5
2f5
  8
Layer_2
  62
1
  66
1
  10
0
  20
0
  30
0
  0
VERTEX
  5
2f5
  8
Layer_2
  10
217.25
  20
202.5
  0
VERTEX
  5
2f6
  8
Layer_2
  10
182.75
  20
202.5
  0
VERTEX
  5
2f7
  8
Layer_2
  10
182.75
  20
225.5
  0
VERTEX
  5
2f8
  8
Layer_2
  10
217.25
  20
225.5
  0
VERTEX
  5
2f9
  8
Layer_2
  10
217.25
  20
202.5
  0
SEQEND
  0
ENDSEC
  0
EOF
