ISO-10303-21;
HEADER;
/* Generated by software containing ST-Developer
 * from STEP Tools, Inc. (www.steptools.com) 
 */
/* OPTION: using custom renumber hook */

FILE_DESCRIPTION(
/* description */ ('STEP AP242',
'CAx-IF Rec.Pracs.---Representation and Presentation of Product Manufa
cturing Information (PMI)---4.0---2014-10-13',
'CAx-IF Rec.Pracs.---3D Tessellated Geometry---0.4---2014-09-14','2;1'),

/* implementation_level */ '2;1');

FILE_NAME(
/* name */ '6363f87a04146c1f33591c32',
/* time_stamp */ '2022-11-03T17:20:59+00:00',
/* author */ (''),
/* organization */ (''),
/* preprocessor_version */ 'ST-DEVELOPER v18.102',
/* originating_system */ '  ',
/* authorisation */ '  ');

FILE_SCHEMA (('AP242_MANAGED_MODEL_BASED_3D_ENGINEERING_MIM_LF { 1 0 10303 442 1 1 4 }'));
ENDSEC;

DATA;
#10=SHAPE_REPRESENTATION_RELATIONSHIP('','',#347,#11);
#11=ADVANCED_BREP_SHAPE_REPRESENTATION('',(#345),#593);
#12=CYLINDRICAL_SURFACE('',#373,0.0215);
#13=CYLINDRICAL_SURFACE('',#374,0.0005);
#14=CYLINDRICAL_SURFACE('',#377,0.0035);
#15=CYLINDRICAL_SURFACE('',#378,0.0035);
#16=CYLINDRICAL_SURFACE('',#379,0.0005);
#17=CYLINDRICAL_SURFACE('',#381,0.0215);
#18=CYLINDRICAL_SURFACE('',#383,0.001);
#19=CYLINDRICAL_SURFACE('',#384,0.001);
#20=CYLINDRICAL_SURFACE('',#385,0.001);
#21=CYLINDRICAL_SURFACE('',#386,0.001);
#22=CIRCLE('',#350,0.001);
#23=CIRCLE('',#351,0.001);
#24=CIRCLE('',#352,0.0005);
#25=CIRCLE('',#353,0.0215);
#26=CIRCLE('',#354,0.0035);
#27=CIRCLE('',#355,0.001);
#28=CIRCLE('',#356,0.001);
#29=CIRCLE('',#357,0.0035);
#30=CIRCLE('',#358,0.0215);
#31=CIRCLE('',#359,0.0005);
#32=CIRCLE('',#361,0.001);
#33=CIRCLE('',#362,0.0005);
#34=CIRCLE('',#363,0.0215);
#35=CIRCLE('',#364,0.0035);
#36=CIRCLE('',#365,0.001);
#37=CIRCLE('',#366,0.001);
#38=CIRCLE('',#367,0.0035);
#39=CIRCLE('',#368,0.0215);
#40=CIRCLE('',#369,0.0005);
#41=CIRCLE('',#370,0.001);
#42=ORIENTED_EDGE('',*,*,#138,.F.);
#43=ORIENTED_EDGE('',*,*,#139,.T.);
#44=ORIENTED_EDGE('',*,*,#140,.F.);
#45=ORIENTED_EDGE('',*,*,#141,.T.);
#46=ORIENTED_EDGE('',*,*,#142,.F.);
#47=ORIENTED_EDGE('',*,*,#143,.T.);
#48=ORIENTED_EDGE('',*,*,#144,.F.);
#49=ORIENTED_EDGE('',*,*,#145,.F.);
#50=ORIENTED_EDGE('',*,*,#146,.T.);
#51=ORIENTED_EDGE('',*,*,#147,.T.);
#52=ORIENTED_EDGE('',*,*,#148,.T.);
#53=ORIENTED_EDGE('',*,*,#149,.T.);
#54=ORIENTED_EDGE('',*,*,#150,.T.);
#55=ORIENTED_EDGE('',*,*,#151,.F.);
#56=ORIENTED_EDGE('',*,*,#152,.F.);
#57=ORIENTED_EDGE('',*,*,#153,.T.);
#58=ORIENTED_EDGE('',*,*,#154,.T.);
#59=ORIENTED_EDGE('',*,*,#155,.T.);
#60=ORIENTED_EDGE('',*,*,#156,.T.);
#61=ORIENTED_EDGE('',*,*,#157,.F.);
#62=ORIENTED_EDGE('',*,*,#158,.T.);
#63=ORIENTED_EDGE('',*,*,#159,.T.);
#64=ORIENTED_EDGE('',*,*,#160,.F.);
#65=ORIENTED_EDGE('',*,*,#161,.T.);
#66=ORIENTED_EDGE('',*,*,#162,.F.);
#67=ORIENTED_EDGE('',*,*,#163,.T.);
#68=ORIENTED_EDGE('',*,*,#164,.F.);
#69=ORIENTED_EDGE('',*,*,#165,.T.);
#70=ORIENTED_EDGE('',*,*,#166,.T.);
#71=ORIENTED_EDGE('',*,*,#167,.F.);
#72=ORIENTED_EDGE('',*,*,#168,.T.);
#73=ORIENTED_EDGE('',*,*,#169,.T.);
#74=ORIENTED_EDGE('',*,*,#140,.T.);
#75=ORIENTED_EDGE('',*,*,#170,.T.);
#76=ORIENTED_EDGE('',*,*,#154,.F.);
#77=ORIENTED_EDGE('',*,*,#171,.T.);
#78=ORIENTED_EDGE('',*,*,#162,.T.);
#79=ORIENTED_EDGE('',*,*,#172,.T.);
#80=ORIENTED_EDGE('',*,*,#148,.F.);
#81=ORIENTED_EDGE('',*,*,#173,.T.);
#82=ORIENTED_EDGE('',*,*,#144,.T.);
#83=ORIENTED_EDGE('',*,*,#174,.F.);
#84=ORIENTED_EDGE('',*,*,#166,.F.);
#85=ORIENTED_EDGE('',*,*,#175,.F.);
#86=ORIENTED_EDGE('',*,*,#176,.T.);
#87=ORIENTED_EDGE('',*,*,#167,.T.);
#88=ORIENTED_EDGE('',*,*,#174,.T.);
#89=ORIENTED_EDGE('',*,*,#143,.F.);
#90=ORIENTED_EDGE('',*,*,#142,.T.);
#91=ORIENTED_EDGE('',*,*,#177,.T.);
#92=ORIENTED_EDGE('',*,*,#168,.F.);
#93=ORIENTED_EDGE('',*,*,#176,.F.);
#94=ORIENTED_EDGE('',*,*,#164,.T.);
#95=ORIENTED_EDGE('',*,*,#178,.T.);
#96=ORIENTED_EDGE('',*,*,#146,.F.);
#97=ORIENTED_EDGE('',*,*,#179,.F.);
#98=ORIENTED_EDGE('',*,*,#145,.T.);
#99=ORIENTED_EDGE('',*,*,#175,.T.);
#100=ORIENTED_EDGE('',*,*,#165,.F.);
#101=ORIENTED_EDGE('',*,*,#179,.T.);
#102=ORIENTED_EDGE('',*,*,#151,.T.);
#103=ORIENTED_EDGE('',*,*,#180,.F.);
#104=ORIENTED_EDGE('',*,*,#159,.F.);
#105=ORIENTED_EDGE('',*,*,#181,.F.);
#106=ORIENTED_EDGE('',*,*,#182,.F.);
#107=ORIENTED_EDGE('',*,*,#157,.T.);
#108=ORIENTED_EDGE('',*,*,#183,.F.);
#109=ORIENTED_EDGE('',*,*,#153,.F.);
#110=ORIENTED_EDGE('',*,*,#150,.F.);
#111=ORIENTED_EDGE('',*,*,#184,.T.);
#112=ORIENTED_EDGE('',*,*,#160,.T.);
#113=ORIENTED_EDGE('',*,*,#180,.T.);
#114=ORIENTED_EDGE('',*,*,#152,.T.);
#115=ORIENTED_EDGE('',*,*,#181,.T.);
#116=ORIENTED_EDGE('',*,*,#158,.F.);
#117=ORIENTED_EDGE('',*,*,#182,.T.);
#118=ORIENTED_EDGE('',*,*,#156,.F.);
#119=ORIENTED_EDGE('',*,*,#185,.T.);
#120=ORIENTED_EDGE('',*,*,#138,.T.);
#121=ORIENTED_EDGE('',*,*,#183,.T.);
#122=ORIENTED_EDGE('',*,*,#155,.F.);
#123=ORIENTED_EDGE('',*,*,#170,.F.);
#124=ORIENTED_EDGE('',*,*,#139,.F.);
#125=ORIENTED_EDGE('',*,*,#185,.F.);
#126=ORIENTED_EDGE('',*,*,#149,.F.);
#127=ORIENTED_EDGE('',*,*,#172,.F.);
#128=ORIENTED_EDGE('',*,*,#161,.F.);
#129=ORIENTED_EDGE('',*,*,#184,.F.);
#130=ORIENTED_EDGE('',*,*,#147,.F.);
#131=ORIENTED_EDGE('',*,*,#178,.F.);
#132=ORIENTED_EDGE('',*,*,#163,.F.);
#133=ORIENTED_EDGE('',*,*,#173,.F.);
#134=ORIENTED_EDGE('',*,*,#141,.F.);
#135=ORIENTED_EDGE('',*,*,#171,.F.);
#136=ORIENTED_EDGE('',*,*,#169,.F.);
#137=ORIENTED_EDGE('',*,*,#177,.F.);
#138=EDGE_CURVE('',#186,#187,#218,.T.);
#139=EDGE_CURVE('',#186,#188,#22,.T.);
#140=EDGE_CURVE('',#189,#188,#219,.T.);
#141=EDGE_CURVE('',#189,#190,#23,.T.);
#142=EDGE_CURVE('',#191,#190,#220,.T.);
#143=EDGE_CURVE('',#191,#192,#24,.T.);
#144=EDGE_CURVE('',#193,#192,#25,.T.);
#145=EDGE_CURVE('',#194,#193,#26,.T.);
#146=EDGE_CURVE('',#194,#195,#221,.T.);
#147=EDGE_CURVE('',#195,#196,#27,.T.);
#148=EDGE_CURVE('',#196,#197,#222,.T.);
#149=EDGE_CURVE('',#197,#198,#28,.T.);
#150=EDGE_CURVE('',#198,#199,#223,.T.);
#151=EDGE_CURVE('',#200,#199,#29,.T.);
#152=EDGE_CURVE('',#201,#200,#30,.T.);
#153=EDGE_CURVE('',#201,#187,#31,.T.);
#154=EDGE_CURVE('',#202,#203,#224,.T.);
#155=EDGE_CURVE('',#203,#204,#32,.F.);
#156=EDGE_CURVE('',#204,#205,#225,.T.);
#157=EDGE_CURVE('',#206,#205,#33,.T.);
#158=EDGE_CURVE('',#206,#207,#34,.T.);
#159=EDGE_CURVE('',#207,#208,#35,.T.);
#160=EDGE_CURVE('',#209,#208,#226,.T.);
#161=EDGE_CURVE('',#209,#210,#36,.F.);
#162=EDGE_CURVE('',#211,#210,#227,.T.);
#163=EDGE_CURVE('',#211,#212,#37,.F.);
#164=EDGE_CURVE('',#213,#212,#228,.T.);
#165=EDGE_CURVE('',#213,#214,#38,.T.);
#166=EDGE_CURVE('',#214,#215,#39,.T.);
#167=EDGE_CURVE('',#216,#215,#40,.T.);
#168=EDGE_CURVE('',#216,#217,#229,.T.);
#169=EDGE_CURVE('',#217,#202,#41,.F.);
#170=EDGE_CURVE('',#188,#203,#230,.F.);
#171=EDGE_CURVE('',#202,#189,#231,.F.);
#172=EDGE_CURVE('',#210,#197,#232,.F.);
#173=EDGE_CURVE('',#196,#211,#233,.T.);
#174=EDGE_CURVE('',#215,#192,#234,.T.);
#175=EDGE_CURVE('',#193,#214,#235,.T.);
#176=EDGE_CURVE('',#191,#216,#236,.F.);
#177=EDGE_CURVE('',#190,#217,#237,.T.);
#178=EDGE_CURVE('',#212,#195,#238,.F.);
#179=EDGE_CURVE('',#213,#194,#239,.F.);
#180=EDGE_CURVE('',#208,#199,#240,.T.);
#181=EDGE_CURVE('',#200,#207,#241,.F.);
#182=EDGE_CURVE('',#206,#201,#242,.T.);
#183=EDGE_CURVE('',#187,#205,#243,.F.);
#184=EDGE_CURVE('',#198,#209,#244,.T.);
#185=EDGE_CURVE('',#204,#186,#245,.T.);
#186=VERTEX_POINT('',#496);
#187=VERTEX_POINT('',#497);
#188=VERTEX_POINT('',#499);
#189=VERTEX_POINT('',#501);
#190=VERTEX_POINT('',#503);
#191=VERTEX_POINT('',#505);
#192=VERTEX_POINT('',#507);
#193=VERTEX_POINT('',#509);
#194=VERTEX_POINT('',#511);
#195=VERTEX_POINT('',#513);
#196=VERTEX_POINT('',#515);
#197=VERTEX_POINT('',#517);
#198=VERTEX_POINT('',#519);
#199=VERTEX_POINT('',#521);
#200=VERTEX_POINT('',#523);
#201=VERTEX_POINT('',#525);
#202=VERTEX_POINT('',#529);
#203=VERTEX_POINT('',#530);
#204=VERTEX_POINT('',#532);
#205=VERTEX_POINT('',#534);
#206=VERTEX_POINT('',#536);
#207=VERTEX_POINT('',#538);
#208=VERTEX_POINT('',#540);
#209=VERTEX_POINT('',#542);
#210=VERTEX_POINT('',#544);
#211=VERTEX_POINT('',#546);
#212=VERTEX_POINT('',#548);
#213=VERTEX_POINT('',#550);
#214=VERTEX_POINT('',#552);
#215=VERTEX_POINT('',#554);
#216=VERTEX_POINT('',#556);
#217=VERTEX_POINT('',#558);
#218=LINE('',#495,#246);
#219=LINE('',#500,#247);
#220=LINE('',#504,#248);
#221=LINE('',#512,#249);
#222=LINE('',#516,#250);
#223=LINE('',#520,#251);
#224=LINE('',#528,#252);
#225=LINE('',#533,#253);
#226=LINE('',#541,#254);
#227=LINE('',#545,#255);
#228=LINE('',#549,#256);
#229=LINE('',#557,#257);
#230=LINE('',#561,#258);
#231=LINE('',#562,#259);
#232=LINE('',#564,#260);
#233=LINE('',#565,#261);
#234=LINE('',#567,#262);
#235=LINE('',#568,#263);
#236=LINE('',#570,#264);
#237=LINE('',#572,#265);
#238=LINE('',#574,#266);
#239=LINE('',#575,#267);
#240=LINE('',#578,#268);
#241=LINE('',#579,#269);
#242=LINE('',#581,#270);
#243=LINE('',#582,#271);
#244=LINE('',#584,#272);
#245=LINE('',#587,#273);
#246=VECTOR('',#391,1.);
#247=VECTOR('',#394,1.);
#248=VECTOR('',#397,1.);
#249=VECTOR('',#404,1.);
#250=VECTOR('',#407,1.);
#251=VECTOR('',#410,1.);
#252=VECTOR('',#419,1.);
#253=VECTOR('',#422,1.);
#254=VECTOR('',#429,1.);
#255=VECTOR('',#432,1.);
#256=VECTOR('',#435,1.);
#257=VECTOR('',#442,1.);
#258=VECTOR('',#447,1.);
#259=VECTOR('',#448,1.);
#260=VECTOR('',#451,1.);
#261=VECTOR('',#452,1.);
#262=VECTOR('',#455,1.);
#263=VECTOR('',#456,1.);
#264=VECTOR('',#459,1.);
#265=VECTOR('',#462,1.);
#266=VECTOR('',#465,1.);
#267=VECTOR('',#466,1.);
#268=VECTOR('',#471,1.);
#269=VECTOR('',#472,1.);
#270=VECTOR('',#475,1.);
#271=VECTOR('',#476,1.);
#272=VECTOR('',#479,1.);
#273=VECTOR('',#484,1.);
#274=EDGE_LOOP('',(#42,#43,#44,#45,#46,#47,#48,#49,#50,#51,#52,#53,#54,
#55,#56,#57));
#275=EDGE_LOOP('',(#58,#59,#60,#61,#62,#63,#64,#65,#66,#67,#68,#69,#70,
#71,#72,#73));
#276=EDGE_LOOP('',(#74,#75,#76,#77));
#277=EDGE_LOOP('',(#78,#79,#80,#81));
#278=EDGE_LOOP('',(#82,#83,#84,#85));
#279=EDGE_LOOP('',(#86,#87,#88,#89));
#280=EDGE_LOOP('',(#90,#91,#92,#93));
#281=EDGE_LOOP('',(#94,#95,#96,#97));
#282=EDGE_LOOP('',(#98,#99,#100,#101));
#283=EDGE_LOOP('',(#102,#103,#104,#105));
#284=EDGE_LOOP('',(#106,#107,#108,#109));
#285=EDGE_LOOP('',(#110,#111,#112,#113));
#286=EDGE_LOOP('',(#114,#115,#116,#117));
#287=EDGE_LOOP('',(#118,#119,#120,#121));
#288=EDGE_LOOP('',(#122,#123,#124,#125));
#289=EDGE_LOOP('',(#126,#127,#128,#129));
#290=EDGE_LOOP('',(#130,#131,#132,#133));
#291=EDGE_LOOP('',(#134,#135,#136,#137));
#292=FACE_BOUND('',#274,.T.);
#293=FACE_BOUND('',#275,.T.);
#294=FACE_BOUND('',#276,.T.);
#295=FACE_BOUND('',#277,.T.);
#296=FACE_BOUND('',#278,.T.);
#297=FACE_BOUND('',#279,.T.);
#298=FACE_BOUND('',#280,.T.);
#299=FACE_BOUND('',#281,.T.);
#300=FACE_BOUND('',#282,.T.);
#301=FACE_BOUND('',#283,.T.);
#302=FACE_BOUND('',#284,.T.);
#303=FACE_BOUND('',#285,.T.);
#304=FACE_BOUND('',#286,.T.);
#305=FACE_BOUND('',#287,.T.);
#306=FACE_BOUND('',#288,.T.);
#307=FACE_BOUND('',#289,.T.);
#308=FACE_BOUND('',#290,.T.);
#309=FACE_BOUND('',#291,.T.);
#310=PLANE('',#349);
#311=PLANE('',#360);
#312=PLANE('',#371);
#313=PLANE('',#372);
#314=PLANE('',#375);
#315=PLANE('',#376);
#316=PLANE('',#380);
#317=PLANE('',#382);
#318=ADVANCED_FACE('',(#292),#310,.T.);
#319=ADVANCED_FACE('',(#293),#311,.F.);
#320=ADVANCED_FACE('',(#294),#312,.T.);
#321=ADVANCED_FACE('',(#295),#313,.F.);
#322=ADVANCED_FACE('',(#296),#12,.F.);
#323=ADVANCED_FACE('',(#297),#13,.T.);
#324=ADVANCED_FACE('',(#298),#314,.F.);
#325=ADVANCED_FACE('',(#299),#315,.T.);
#326=ADVANCED_FACE('',(#300),#14,.F.);
#327=ADVANCED_FACE('',(#301),#15,.F.);
#328=ADVANCED_FACE('',(#302),#16,.T.);
#329=ADVANCED_FACE('',(#303),#316,.T.);
#330=ADVANCED_FACE('',(#304),#17,.F.);
#331=ADVANCED_FACE('',(#305),#317,.F.);
#332=ADVANCED_FACE('',(#306),#18,.T.);
#333=ADVANCED_FACE('',(#307),#19,.T.);
#334=ADVANCED_FACE('',(#308),#20,.T.);
#335=ADVANCED_FACE('',(#309),#21,.T.);
#336=CLOSED_SHELL('',(#318,#319,#320,#321,#322,#323,#324,#325,#326,#327,
#328,#329,#330,#331,#332,#333,#334,#335));
#337=STYLED_ITEM('',(#338),#345);
#338=PRESENTATION_STYLE_ASSIGNMENT((#339));
#339=SURFACE_STYLE_USAGE(.BOTH.,#340);
#340=SURFACE_SIDE_STYLE('',(#341));
#341=SURFACE_STYLE_FILL_AREA(#342);
#342=FILL_AREA_STYLE('',(#343));
#343=FILL_AREA_STYLE_COLOUR('',#344);
#344=COLOUR_RGB('',0.980392156862745,0.713725490196078,0.00392156862745098);
#345=MANIFOLD_SOLID_BREP('IKEA Samla Longitudinal Partition V03',#336);
#346=SHAPE_DEFINITION_REPRESENTATION(#598,#347);
#347=SHAPE_REPRESENTATION('IKEA Samla Longitudinal Partition V03',(#348),
#593);
#348=AXIS2_PLACEMENT_3D('',#493,#387,#388);
#349=AXIS2_PLACEMENT_3D('',#494,#389,#390);
#350=AXIS2_PLACEMENT_3D('',#498,#392,#393);
#351=AXIS2_PLACEMENT_3D('',#502,#395,#396);
#352=AXIS2_PLACEMENT_3D('',#506,#398,#399);
#353=AXIS2_PLACEMENT_3D('',#508,#400,#401);
#354=AXIS2_PLACEMENT_3D('',#510,#402,#403);
#355=AXIS2_PLACEMENT_3D('',#514,#405,#406);
#356=AXIS2_PLACEMENT_3D('',#518,#408,#409);
#357=AXIS2_PLACEMENT_3D('',#522,#411,#412);
#358=AXIS2_PLACEMENT_3D('',#524,#413,#414);
#359=AXIS2_PLACEMENT_3D('',#526,#415,#416);
#360=AXIS2_PLACEMENT_3D('',#527,#417,#418);
#361=AXIS2_PLACEMENT_3D('',#531,#420,#421);
#362=AXIS2_PLACEMENT_3D('',#535,#423,#424);
#363=AXIS2_PLACEMENT_3D('',#537,#425,#426);
#364=AXIS2_PLACEMENT_3D('',#539,#427,#428);
#365=AXIS2_PLACEMENT_3D('',#543,#430,#431);
#366=AXIS2_PLACEMENT_3D('',#547,#433,#434);
#367=AXIS2_PLACEMENT_3D('',#551,#436,#437);
#368=AXIS2_PLACEMENT_3D('',#553,#438,#439);
#369=AXIS2_PLACEMENT_3D('',#555,#440,#441);
#370=AXIS2_PLACEMENT_3D('',#559,#443,#444);
#371=AXIS2_PLACEMENT_3D('',#560,#445,#446);
#372=AXIS2_PLACEMENT_3D('',#563,#449,#450);
#373=AXIS2_PLACEMENT_3D('',#566,#453,#454);
#374=AXIS2_PLACEMENT_3D('',#569,#457,#458);
#375=AXIS2_PLACEMENT_3D('',#571,#460,#461);
#376=AXIS2_PLACEMENT_3D('',#573,#463,#464);
#377=AXIS2_PLACEMENT_3D('',#576,#467,#468);
#378=AXIS2_PLACEMENT_3D('',#577,#469,#470);
#379=AXIS2_PLACEMENT_3D('',#580,#473,#474);
#380=AXIS2_PLACEMENT_3D('',#583,#477,#478);
#381=AXIS2_PLACEMENT_3D('',#585,#480,#481);
#382=AXIS2_PLACEMENT_3D('',#586,#482,#483);
#383=AXIS2_PLACEMENT_3D('',#588,#485,#486);
#384=AXIS2_PLACEMENT_3D('',#589,#487,#488);
#385=AXIS2_PLACEMENT_3D('',#590,#489,#490);
#386=AXIS2_PLACEMENT_3D('',#591,#491,#492);
#387=DIRECTION('',(0.,0.,1.));
#388=DIRECTION('',(1.,0.,0.));
#389=DIRECTION('',(0.,-1.,0.));
#390=DIRECTION('',(1.,0.,0.));
#391=DIRECTION('',(-0.0697564737441257,0.,-0.997564050259824));
#392=DIRECTION('',(0.,-1.,0.));
#393=DIRECTION('',(0.,0.,-1.));
#394=DIRECTION('',(1.,0.,0.));
#395=DIRECTION('',(0.,-1.,0.));
#396=DIRECTION('',(0.,0.,-1.));
#397=DIRECTION('',(-0.0697564737441257,0.,0.997564050259824));
#398=DIRECTION('',(0.,-1.,0.));
#399=DIRECTION('',(0.,0.,-1.));
#400=DIRECTION('',(0.,-1.,0.));
#401=DIRECTION('',(0.,0.,-1.));
#402=DIRECTION('',(0.,-1.,0.));
#403=DIRECTION('',(0.,0.,-1.));
#404=DIRECTION('',(0.0697564737441258,0.,-0.997564050259824));
#405=DIRECTION('',(0.,-1.,0.));
#406=DIRECTION('',(0.,0.,-1.));
#407=DIRECTION('',(1.,0.,0.));
#408=DIRECTION('',(0.,-1.,0.));
#409=DIRECTION('',(0.,0.,-1.));
#410=DIRECTION('',(0.0697564737441258,0.,0.997564050259824));
#411=DIRECTION('',(0.,-1.,0.));
#412=DIRECTION('',(0.,0.,-1.));
#413=DIRECTION('',(0.,-1.,0.));
#414=DIRECTION('',(0.,0.,-1.));
#415=DIRECTION('',(0.,-1.,0.));
#416=DIRECTION('',(0.,0.,-1.));
#417=DIRECTION('',(0.,-1.,0.));
#418=DIRECTION('',(1.,0.,0.));
#419=DIRECTION('',(1.,0.,0.));
#420=DIRECTION('',(0.,-1.,0.));
#421=DIRECTION('',(0.,0.,-1.));
#422=DIRECTION('',(-0.0697564737441257,0.,-0.997564050259824));
#423=DIRECTION('',(0.,-1.,0.));
#424=DIRECTION('',(0.,0.,-1.));
#425=DIRECTION('',(0.,-1.,0.));
#426=DIRECTION('',(0.,0.,-1.));
#427=DIRECTION('',(0.,-1.,0.));
#428=DIRECTION('',(0.,0.,-1.));
#429=DIRECTION('',(0.0697564737441258,0.,0.997564050259824));
#430=DIRECTION('',(0.,-1.,0.));
#431=DIRECTION('',(0.,0.,-1.));
#432=DIRECTION('',(1.,0.,0.));
#433=DIRECTION('',(0.,-1.,0.));
#434=DIRECTION('',(0.,0.,-1.));
#435=DIRECTION('',(0.0697564737441258,0.,-0.997564050259824));
#436=DIRECTION('',(0.,-1.,0.));
#437=DIRECTION('',(0.,0.,-1.));
#438=DIRECTION('',(0.,-1.,0.));
#439=DIRECTION('',(0.,0.,-1.));
#440=DIRECTION('',(0.,-1.,0.));
#441=DIRECTION('',(0.,0.,-1.));
#442=DIRECTION('',(-0.0697564737441257,0.,0.997564050259824));
#443=DIRECTION('',(0.,-1.,0.));
#444=DIRECTION('',(0.,0.,-1.));
#445=DIRECTION('',(0.,0.,1.));
#446=DIRECTION('',(1.,0.,0.));
#447=DIRECTION('',(3.01871165052385E-16,-1.,0.));
#448=DIRECTION('',(0.,1.,0.));
#449=DIRECTION('',(0.,0.,1.));
#450=DIRECTION('',(1.,0.,0.));
#451=DIRECTION('',(-3.01871165052385E-16,1.,0.));
#452=DIRECTION('',(0.,1.,0.));
#453=DIRECTION('',(0.,-1.,0.));
#454=DIRECTION('',(0.360821625241863,0.,0.932634845348286));
#455=DIRECTION('',(0.,-1.,0.));
#456=DIRECTION('',(0.,1.,0.));
#457=DIRECTION('',(0.,-1.,0.));
#458=DIRECTION('',(-0.535938816360914,0.,-0.844256824146339));
#459=DIRECTION('',(0.,-1.,0.));
#460=DIRECTION('',(0.997564050259824,0.,0.0697564737441257));
#461=DIRECTION('',(0.0697564737441268,0.,-0.997564050259824));
#462=DIRECTION('',(0.,1.,0.));
#463=DIRECTION('',(-0.997564050259824,0.,-0.0697564737441258));
#464=DIRECTION('',(-0.0697564737441269,0.,0.997564050259824));
#465=DIRECTION('',(0.,1.,0.));
#466=DIRECTION('',(0.,1.,0.));
#467=DIRECTION('',(0.,1.,0.));
#468=DIRECTION('',(0.783522403425092,0.,0.62136353556591));
#469=DIRECTION('',(-3.01871165052385E-16,1.,0.));
#470=DIRECTION('',(-0.783522403425092,-2.36522820766577E-16,0.62136353556591));
#471=DIRECTION('',(3.01871165052385E-16,-1.,1.23259516440783E-32));
#472=DIRECTION('',(3.01871165052385E-16,-1.,0.));
#473=DIRECTION('',(3.01871165052385E-16,-1.,0.));
#474=DIRECTION('',(0.535938816360914,1.61784474891665E-16,-0.844256824146339));
#475=DIRECTION('',(3.01871165052385E-16,-1.,0.));
#476=DIRECTION('',(3.01871165052385E-16,-1.,-5.8548270309372E-32));
#477=DIRECTION('',(0.997564050259824,3.01135822066309E-16,-0.0697564737441258));
#478=DIRECTION('',(0.0697564737441269,2.10574679990857E-17,0.997564050259824));
#479=DIRECTION('',(-3.01871165052385E-16,1.,-3.07394512467847E-33));
#480=DIRECTION('',(3.01871165052385E-16,-1.,0.));
#481=DIRECTION('',(-0.360821625241863,-1.08921644387856E-16,0.932634845348286));
#482=DIRECTION('',(-0.997564050259824,-3.01135822066309E-16,0.0697564737441257));
#483=DIRECTION('',(-0.0697564737441268,-2.10574679990856E-17,-0.997564050259824));
#484=DIRECTION('',(3.01871165052385E-16,-1.,3.07394512467847E-33));
#485=DIRECTION('',(-3.01871165052385E-16,1.,0.));
#486=DIRECTION('',(-1.,-3.01871165052385E-16,0.));
#487=DIRECTION('',(3.01871165052385E-16,-1.,0.));
#488=DIRECTION('',(1.,3.01871165052385E-16,0.));
#489=DIRECTION('',(0.,-1.,0.));
#490=DIRECTION('',(0.,0.,-1.));
#491=DIRECTION('',(0.,-1.,0.));
#492=DIRECTION('',(0.,0.,-1.));
#493=CARTESIAN_POINT('',(0.,0.,0.));
#494=CARTESIAN_POINT('',(0.00281009078025818,-0.0012,-0.0648));
#495=CARTESIAN_POINT('',(0.121218815548046,-0.0012,-0.073079944629308));
#496=CARTESIAN_POINT('',(0.125394158646311,-0.0012,-0.0133697564737441));
#497=CARTESIAN_POINT('',(0.124521883125661,-0.0012,-0.0258438775784678));
#498=CARTESIAN_POINT('',(0.124396594596051,-0.0012,-0.0133));
#499=CARTESIAN_POINT('',(0.124396594596051,-0.0012,-0.0123));
#500=CARTESIAN_POINT('',(0.00396282970905301,-0.0012,-0.0123));
#501=CARTESIAN_POINT('',(-0.124396594596052,-0.0012,-0.0123));
#502=CARTESIAN_POINT('',(-0.124396594596051,-0.0012,-0.0133));
#503=CARTESIAN_POINT('',(-0.125394158646311,-0.0012,-0.0133697564737441));
#504=CARTESIAN_POINT('',(-0.121191467937742,-0.0012,-0.0734710336771758));
#505=CARTESIAN_POINT('',(-0.124521883125661,-0.0012,-0.025843877578468));
#506=CARTESIAN_POINT('',(-0.124023101100531,-0.0012,-0.025808999341596));
#507=CARTESIAN_POINT('',(-0.123842412523315,-0.0012,-0.0262752092064256));
#508=CARTESIAN_POINT('',(-0.116072803703062,-0.0012,-0.046322233394076));
#509=CARTESIAN_POINT('',(-0.109726391549196,-0.0012,-0.0257802507056087));
#510=CARTESIAN_POINT('',(-0.110759528411454,-0.0012,-0.0291242943990799));
#511=CARTESIAN_POINT('',(-0.107268054235545,-0.0012,-0.0288801467409757));
#512=CARTESIAN_POINT('',(-0.104232879083325,-0.0012,-0.0722851736235257));
#513=CARTESIAN_POINT('',(-0.10115018474875,-0.0012,-0.116369756473744));
#514=CARTESIAN_POINT('',(-0.10015262069849,-0.0012,-0.1163));
#515=CARTESIAN_POINT('',(-0.10015262069849,-0.0012,-0.1173));
#516=CARTESIAN_POINT('',(0.00396282970905301,-0.0012,-0.1173));
#517=CARTESIAN_POINT('',(0.10015262069849,-0.0012,-0.1173));
#518=CARTESIAN_POINT('',(0.10015262069849,-0.0012,-0.1163));
#519=CARTESIAN_POINT('',(0.10115018474875,-0.0012,-0.116369756473744));
#520=CARTESIAN_POINT('',(0.104260226693629,-0.0012,-0.0718940845756579));
#521=CARTESIAN_POINT('',(0.107268054235545,-0.0012,-0.0288801467409759));
#522=CARTESIAN_POINT('',(0.110759528411454,-0.0012,-0.0291242943990799));
#523=CARTESIAN_POINT('',(0.109726391549197,-0.0012,-0.0257802507056091));
#524=CARTESIAN_POINT('',(0.116072803703062,-0.0012,-0.046322233394076));
#525=CARTESIAN_POINT('',(0.123842412523316,-0.0012,-0.0262752092064251));
#526=CARTESIAN_POINT('',(0.124023101100531,-0.0012,-0.025808999341596));
#527=CARTESIAN_POINT('',(0.00281009078025818,0.0012,-0.0648));
#528=CARTESIAN_POINT('',(0.00396282970905301,0.0012,-0.0123));
#529=CARTESIAN_POINT('',(-0.124396594596052,0.0012,-0.0123));
#530=CARTESIAN_POINT('',(0.124396594596051,0.0012,-0.0123));
#531=CARTESIAN_POINT('',(0.124396594596051,0.0012,-0.0133));
#532=CARTESIAN_POINT('',(0.125394158646311,0.0012,-0.0133697564737441));
#533=CARTESIAN_POINT('',(0.121218815548046,0.0012,-0.073079944629308));
#534=CARTESIAN_POINT('',(0.124521883125661,0.0012,-0.025843877578468));
#535=CARTESIAN_POINT('',(0.124023101100531,0.0012,-0.025808999341596));
#536=CARTESIAN_POINT('',(0.123842412523315,0.0012,-0.0262752092064256));
#537=CARTESIAN_POINT('',(0.116072803703062,0.0012,-0.046322233394076));
#538=CARTESIAN_POINT('',(0.109726391549197,0.0012,-0.0257802507056091));
#539=CARTESIAN_POINT('',(0.110759528411454,0.0012,-0.0291242943990799));
#540=CARTESIAN_POINT('',(0.107268054235545,0.0012,-0.0288801467409757));
#541=CARTESIAN_POINT('',(0.104260226693629,0.0012,-0.0718940845756579));
#542=CARTESIAN_POINT('',(0.10115018474875,0.0012,-0.116369756473744));
#543=CARTESIAN_POINT('',(0.10015262069849,0.0012,-0.1163));
#544=CARTESIAN_POINT('',(0.10015262069849,0.0012,-0.1173));
#545=CARTESIAN_POINT('',(0.00396282970905301,0.0012,-0.1173));
#546=CARTESIAN_POINT('',(-0.10015262069849,0.0012,-0.1173));
#547=CARTESIAN_POINT('',(-0.10015262069849,0.0012,-0.1163));
#548=CARTESIAN_POINT('',(-0.10115018474875,0.0012,-0.116369756473744));
#549=CARTESIAN_POINT('',(-0.104232879083325,0.0012,-0.0722851736235257));
#550=CARTESIAN_POINT('',(-0.107268054235545,0.0012,-0.0288801467409759));
#551=CARTESIAN_POINT('',(-0.110759528411454,0.0012,-0.0291242943990799));
#552=CARTESIAN_POINT('',(-0.109726391549197,0.0012,-0.0257802507056091));
#553=CARTESIAN_POINT('',(-0.116072803703062,0.0012,-0.046322233394076));
#554=CARTESIAN_POINT('',(-0.123842412523315,0.0012,-0.0262752092064256));
#555=CARTESIAN_POINT('',(-0.124023101100531,0.0012,-0.025808999341596));
#556=CARTESIAN_POINT('',(-0.124521883125661,0.0012,-0.0258438775784678));
#557=CARTESIAN_POINT('',(-0.121191467937742,0.0012,-0.0734710336771758));
#558=CARTESIAN_POINT('',(-0.125394158646311,0.0012,-0.0133697564737441));
#559=CARTESIAN_POINT('',(-0.124396594596051,0.0012,-0.0133));
#560=CARTESIAN_POINT('',(0.00396282970905301,-0.0012,-0.0123));
#561=CARTESIAN_POINT('',(0.124396594596051,0.0012,-0.0123));
#562=CARTESIAN_POINT('',(-0.124396594596051,-0.0012,-0.0123));
#563=CARTESIAN_POINT('',(0.00396282970905301,-0.0012,-0.1173));
#564=CARTESIAN_POINT('',(0.10015262069849,-0.0012,-0.1173));
#565=CARTESIAN_POINT('',(-0.10015262069849,0.0012,-0.1173));
#566=CARTESIAN_POINT('',(-0.116072803703062,0.00465301327419336,-0.046322233394076));
#567=CARTESIAN_POINT('',(-0.123842412523316,0.00465301327419336,-0.0262752092064251));
#568=CARTESIAN_POINT('',(-0.109726391549196,0.00465301327419336,-0.0257802507056087));
#569=CARTESIAN_POINT('',(-0.124023101100531,0.00465301327419336,-0.025808999341596));
#570=CARTESIAN_POINT('',(-0.124521883125661,0.00465301327419336,-0.025843877578468));
#571=CARTESIAN_POINT('',(-0.126971595024408,0.00465301327419336,0.00918863471061619));
#572=CARTESIAN_POINT('',(-0.125394158646311,0.0012,-0.0133697564737441));
#573=CARTESIAN_POINT('',(-0.0967613744497617,0.00465301327419341,-0.179132667823595));
#574=CARTESIAN_POINT('',(-0.10115018474875,-0.0012,-0.116369756473744));
#575=CARTESIAN_POINT('',(-0.107268054235545,0.00465301327419336,-0.0288801467409759));
#576=CARTESIAN_POINT('',(-0.110759528411454,0.00465301327419336,-0.0291242943990799));
#577=CARTESIAN_POINT('',(0.110759528411454,0.00465301327419339,-0.0291242943990799));
#578=CARTESIAN_POINT('',(0.107268054235545,0.00465301327419344,-0.0288801467409757));
#579=CARTESIAN_POINT('',(0.109726391549197,0.00465301327419339,-0.0257802507056091));
#580=CARTESIAN_POINT('',(0.124023101100531,0.00465301327419339,-0.025808999341596));
#581=CARTESIAN_POINT('',(0.123842412523315,0.00465301327419339,-0.0262752092064256));
#582=CARTESIAN_POINT('',(0.124521883125661,0.00465301327419339,-0.0258438775784678));
#583=CARTESIAN_POINT('',(0.0967613744497617,0.00465301327419344,-0.179132667823595));
#584=CARTESIAN_POINT('',(0.10115018474875,0.0012,-0.116369756473744));
#585=CARTESIAN_POINT('',(0.116072803703062,0.00465301327419339,-0.046322233394076));
#586=CARTESIAN_POINT('',(0.126971595024408,0.00465301327419339,0.00918863471061619));
#587=CARTESIAN_POINT('',(0.125394158646311,-0.0012,-0.0133697564737441));
#588=CARTESIAN_POINT('',(0.124396594596051,0.00465301327419339,-0.0133));
#589=CARTESIAN_POINT('',(0.10015262069849,0.00465301327419344,-0.1163));
#590=CARTESIAN_POINT('',(-0.10015262069849,-0.0012,-0.1163));
#591=CARTESIAN_POINT('',(-0.124396594596051,0.00465301327419336,-0.0133));
#592=MECHANICAL_DESIGN_GEOMETRIC_PRESENTATION_REPRESENTATION('',(#337),
#593);
#593=(
GEOMETRIC_REPRESENTATION_CONTEXT(3)
GLOBAL_UNCERTAINTY_ASSIGNED_CONTEXT((#594))
GLOBAL_UNIT_ASSIGNED_CONTEXT((#597,#596,#595))
REPRESENTATION_CONTEXT('IKEA Samla Longitudinal Partition V03',
'TOP_LEVEL_ASSEMBLY_PART')
);
#594=UNCERTAINTY_MEASURE_WITH_UNIT(LENGTH_MEASURE(5.E-6),#597,
'DISTANCE_ACCURACY_VALUE','Maximum Tolerance applied to model');
#595=(
NAMED_UNIT(*)
SI_UNIT($,.STERADIAN.)
SOLID_ANGLE_UNIT()
);
#596=(
NAMED_UNIT(*)
PLANE_ANGLE_UNIT()
SI_UNIT($,.RADIAN.)
);
#597=(
LENGTH_UNIT()
NAMED_UNIT(*)
SI_UNIT($,.METRE.)
);
#598=PRODUCT_DEFINITION_SHAPE('','',#599);
#599=PRODUCT_DEFINITION('','',#601,#600);
#600=PRODUCT_DEFINITION_CONTEXT('',#607,'design');
#601=PRODUCT_DEFINITION_FORMATION_WITH_SPECIFIED_SOURCE('','',#603,
 .NOT_KNOWN.);
#602=PRODUCT_RELATED_PRODUCT_CATEGORY('','',(#603));
#603=PRODUCT('IKEA Samla Longitudinal Partition V03',
'IKEA Samla Longitudinal Partition V03',
'IKEA Samla Longitudinal Partition V03',(#605));
#604=PRODUCT_CATEGORY('','');
#605=PRODUCT_CONTEXT('',#607,'mechanical');
#606=APPLICATION_PROTOCOL_DEFINITION('international standard',
'ap242_managed_model_based_3d_engineering',2011,#607);
#607=APPLICATION_CONTEXT('managed model based 3d engineering');
ENDSEC;
END-ISO-10303-21;
