ISO-10303-21;
HEADER;
/* Generated by software containing ST-Developer
 * from STEP Tools, Inc. (www.steptools.com) 
 */
/* OPTION: using custom renumber hook */

FILE_DESCRIPTION(
/* description */ ('STEP AP242',
'CAx-IF Rec.Pracs.---Representation and Presentation of Product Manufa
cturing Information (PMI)---4.0---2014-10-13',
'CAx-IF Rec.Pracs.---3D Tessellated Geometry---0.4---2014-09-14','2;1'),

/* implementation_level */ '2;1');

FILE_NAME(
/* name */ '65d8d6803d8d1747465add3e',
/* time_stamp */ '2024-02-23T17:31:44Z',
/* author */ (''),
/* organization */ (''),
/* preprocessor_version */ 'ST-DEVELOPER v19.4',
/* originating_system */ '  ',
/* authorisation */ '  ');

FILE_SCHEMA (('AP242_MANAGED_MODEL_BASED_3D_ENGINEERING_MIM_LF { 1 0 10303 442 1 1 4 }'));
ENDSEC;

DATA;
#10=SHAPE_REPRESENTATION_RELATIONSHIP('','',#175,#11);
#11=ADVANCED_BREP_SHAPE_REPRESENTATION('',(#173),#295);
#12=LINE('',#266,#16);
#13=LINE('',#287,#17);
#14=LINE('',#289,#18);
#15=LINE('',#290,#19);
#16=VECTOR('',#218,1.);
#17=VECTOR('',#241,1.);
#18=VECTOR('',#244,1.);
#19=VECTOR('',#245,1.);
#20=PLANE('',#180);
#21=PLANE('',#182);
#22=PLANE('',#188);
#23=PLANE('',#192);
#24=PLANE('',#197);
#25=ORIENTED_EDGE('',*,*,#57,.F.);
#26=ORIENTED_EDGE('',*,*,#58,.T.);
#27=ORIENTED_EDGE('',*,*,#59,.F.);
#28=ORIENTED_EDGE('',*,*,#57,.T.);
#29=ORIENTED_EDGE('',*,*,#60,.F.);
#30=ORIENTED_EDGE('',*,*,#61,.F.);
#31=ORIENTED_EDGE('',*,*,#62,.T.);
#32=ORIENTED_EDGE('',*,*,#63,.T.);
#33=ORIENTED_EDGE('',*,*,#58,.F.);
#34=ORIENTED_EDGE('',*,*,#64,.F.);
#35=ORIENTED_EDGE('',*,*,#59,.T.);
#36=ORIENTED_EDGE('',*,*,#65,.F.);
#37=ORIENTED_EDGE('',*,*,#64,.T.);
#38=ORIENTED_EDGE('',*,*,#66,.F.);
#39=ORIENTED_EDGE('',*,*,#65,.T.);
#40=ORIENTED_EDGE('',*,*,#67,.T.);
#41=ORIENTED_EDGE('',*,*,#68,.T.);
#42=ORIENTED_EDGE('',*,*,#69,.F.);
#43=ORIENTED_EDGE('',*,*,#70,.F.);
#44=ORIENTED_EDGE('',*,*,#66,.T.);
#45=ORIENTED_EDGE('',*,*,#71,.T.);
#46=ORIENTED_EDGE('',*,*,#69,.T.);
#47=ORIENTED_EDGE('',*,*,#72,.F.);
#48=ORIENTED_EDGE('',*,*,#63,.F.);
#49=ORIENTED_EDGE('',*,*,#72,.T.);
#50=ORIENTED_EDGE('',*,*,#70,.T.);
#51=ORIENTED_EDGE('',*,*,#71,.F.);
#52=ORIENTED_EDGE('',*,*,#62,.F.);
#53=ORIENTED_EDGE('',*,*,#68,.F.);
#54=ORIENTED_EDGE('',*,*,#61,.T.);
#55=ORIENTED_EDGE('',*,*,#67,.F.);
#56=ORIENTED_EDGE('',*,*,#60,.T.);
#57=EDGE_CURVE('',#73,#73,#87,.T.);
#58=EDGE_CURVE('',#74,#74,#88,.T.);
#59=EDGE_CURVE('',#75,#75,#89,.T.);
#60=EDGE_CURVE('',#76,#76,#90,.F.);
#61=EDGE_CURVE('',#77,#77,#91,.F.);
#62=EDGE_CURVE('',#78,#79,#12,.T.);
#63=EDGE_CURVE('',#79,#78,#92,.T.);
#64=EDGE_CURVE('',#80,#80,#93,.T.);
#65=EDGE_CURVE('',#81,#81,#94,.T.);
#66=EDGE_CURVE('',#82,#82,#95,.T.);
#67=EDGE_CURVE('',#83,#83,#96,.F.);
#68=EDGE_CURVE('',#84,#84,#97,.F.);
#69=EDGE_CURVE('',#85,#86,#98,.T.);
#70=EDGE_CURVE('',#86,#85,#13,.T.);
#71=EDGE_CURVE('',#79,#85,#14,.T.);
#72=EDGE_CURVE('',#78,#86,#15,.T.);
#73=VERTEX_POINT('',#255);
#74=VERTEX_POINT('',#257);
#75=VERTEX_POINT('',#260);
#76=VERTEX_POINT('',#263);
#77=VERTEX_POINT('',#265);
#78=VERTEX_POINT('',#267);
#79=VERTEX_POINT('',#268);
#80=VERTEX_POINT('',#272);
#81=VERTEX_POINT('',#275);
#82=VERTEX_POINT('',#278);
#83=VERTEX_POINT('',#281);
#84=VERTEX_POINT('',#283);
#85=VERTEX_POINT('',#285);
#86=VERTEX_POINT('',#286);
#87=CIRCLE('',#178,0.0105);
#88=CIRCLE('',#179,0.0105);
#89=CIRCLE('',#181,0.009);
#90=CIRCLE('',#183,0.0017);
#91=CIRCLE('',#184,0.0017);
#92=CIRCLE('',#185,0.0027);
#93=CIRCLE('',#187,0.009);
#94=CIRCLE('',#189,0.0075);
#95=CIRCLE('',#191,0.0075);
#96=CIRCLE('',#193,0.0017);
#97=CIRCLE('',#194,0.0017);
#98=CIRCLE('',#195,0.0027);
#99=EDGE_LOOP('',(#25));
#100=EDGE_LOOP('',(#26));
#101=EDGE_LOOP('',(#27));
#102=EDGE_LOOP('',(#28));
#103=EDGE_LOOP('',(#29));
#104=EDGE_LOOP('',(#30));
#105=EDGE_LOOP('',(#31,#32));
#106=EDGE_LOOP('',(#33));
#107=EDGE_LOOP('',(#34));
#108=EDGE_LOOP('',(#35));
#109=EDGE_LOOP('',(#36));
#110=EDGE_LOOP('',(#37));
#111=EDGE_LOOP('',(#38));
#112=EDGE_LOOP('',(#39));
#113=EDGE_LOOP('',(#40));
#114=EDGE_LOOP('',(#41));
#115=EDGE_LOOP('',(#42,#43));
#116=EDGE_LOOP('',(#44));
#117=EDGE_LOOP('',(#45,#46,#47,#48));
#118=EDGE_LOOP('',(#49,#50,#51,#52));
#119=EDGE_LOOP('',(#53));
#120=EDGE_LOOP('',(#54));
#121=EDGE_LOOP('',(#55));
#122=EDGE_LOOP('',(#56));
#123=FACE_BOUND('',#99,.T.);
#124=FACE_BOUND('',#100,.T.);
#125=FACE_BOUND('',#101,.T.);
#126=FACE_BOUND('',#102,.T.);
#127=FACE_BOUND('',#103,.T.);
#128=FACE_BOUND('',#104,.T.);
#129=FACE_BOUND('',#105,.T.);
#130=FACE_BOUND('',#106,.T.);
#131=FACE_BOUND('',#107,.T.);
#132=FACE_BOUND('',#108,.T.);
#133=FACE_BOUND('',#109,.T.);
#134=FACE_BOUND('',#110,.T.);
#135=FACE_BOUND('',#111,.T.);
#136=FACE_BOUND('',#112,.T.);
#137=FACE_BOUND('',#113,.T.);
#138=FACE_BOUND('',#114,.T.);
#139=FACE_BOUND('',#115,.T.);
#140=FACE_BOUND('',#116,.T.);
#141=FACE_BOUND('',#117,.T.);
#142=FACE_BOUND('',#118,.T.);
#143=FACE_BOUND('',#119,.T.);
#144=FACE_BOUND('',#120,.T.);
#145=FACE_BOUND('',#121,.T.);
#146=FACE_BOUND('',#122,.T.);
#147=CYLINDRICAL_SURFACE('',#177,0.0105);
#148=CYLINDRICAL_SURFACE('',#186,0.009);
#149=CYLINDRICAL_SURFACE('',#190,0.0075);
#150=CYLINDRICAL_SURFACE('',#196,0.0027);
#151=CYLINDRICAL_SURFACE('',#198,0.0017);
#152=CYLINDRICAL_SURFACE('',#199,0.0017);
#153=ADVANCED_FACE('',(#123,#124),#147,.T.);
#154=ADVANCED_FACE('',(#125,#126),#20,.T.);
#155=ADVANCED_FACE('',(#127,#128,#129,#130),#21,.F.);
#156=ADVANCED_FACE('',(#131,#132),#148,.T.);
#157=ADVANCED_FACE('',(#133,#134),#22,.T.);
#158=ADVANCED_FACE('',(#135,#136),#149,.T.);
#159=ADVANCED_FACE('',(#137,#138,#139,#140),#23,.T.);
#160=ADVANCED_FACE('',(#141),#150,.F.);
#161=ADVANCED_FACE('',(#142),#24,.F.);
#162=ADVANCED_FACE('',(#143,#144),#151,.F.);
#163=ADVANCED_FACE('',(#145,#146),#152,.F.);
#164=CLOSED_SHELL('',(#153,#154,#155,#156,#157,#158,#159,#160,#161,#162,
#163));
#165=STYLED_ITEM('',(#166),#173);
#166=PRESENTATION_STYLE_ASSIGNMENT((#167));
#167=SURFACE_STYLE_USAGE(.BOTH.,#168);
#168=SURFACE_SIDE_STYLE('',(#169));
#169=SURFACE_STYLE_FILL_AREA(#170);
#170=FILL_AREA_STYLE('',(#171));
#171=FILL_AREA_STYLE_COLOUR('',#172);
#172=COLOUR_RGB('',0.768627450980392,0.886274509803922,0.952941176470588);
#173=MANIFOLD_SOLID_BREP('Output Hub',#164);
#174=SHAPE_DEFINITION_REPRESENTATION(#300,#175);
#175=SHAPE_REPRESENTATION('Output Hub',(#176),#295);
#176=AXIS2_PLACEMENT_3D('',#252,#200,#201);
#177=AXIS2_PLACEMENT_3D('',#253,#202,#203);
#178=AXIS2_PLACEMENT_3D('',#254,#204,#205);
#179=AXIS2_PLACEMENT_3D('',#256,#206,#207);
#180=AXIS2_PLACEMENT_3D('',#258,#208,#209);
#181=AXIS2_PLACEMENT_3D('',#259,#210,#211);
#182=AXIS2_PLACEMENT_3D('',#261,#212,#213);
#183=AXIS2_PLACEMENT_3D('',#262,#214,#215);
#184=AXIS2_PLACEMENT_3D('',#264,#216,#217);
#185=AXIS2_PLACEMENT_3D('',#269,#219,#220);
#186=AXIS2_PLACEMENT_3D('',#270,#221,#222);
#187=AXIS2_PLACEMENT_3D('',#271,#223,#224);
#188=AXIS2_PLACEMENT_3D('',#273,#225,#226);
#189=AXIS2_PLACEMENT_3D('',#274,#227,#228);
#190=AXIS2_PLACEMENT_3D('',#276,#229,#230);
#191=AXIS2_PLACEMENT_3D('',#277,#231,#232);
#192=AXIS2_PLACEMENT_3D('',#279,#233,#234);
#193=AXIS2_PLACEMENT_3D('',#280,#235,#236);
#194=AXIS2_PLACEMENT_3D('',#282,#237,#238);
#195=AXIS2_PLACEMENT_3D('',#284,#239,#240);
#196=AXIS2_PLACEMENT_3D('',#288,#242,#243);
#197=AXIS2_PLACEMENT_3D('',#291,#246,#247);
#198=AXIS2_PLACEMENT_3D('',#292,#248,#249);
#199=AXIS2_PLACEMENT_3D('',#293,#250,#251);
#200=DIRECTION('',(0.,0.,1.));
#201=DIRECTION('',(1.,0.,0.));
#202=DIRECTION('',(0.,0.,-1.));
#203=DIRECTION('',(-1.,0.,0.));
#204=DIRECTION('',(0.,0.,1.));
#205=DIRECTION('',(1.,0.,0.));
#206=DIRECTION('',(0.,0.,1.));
#207=DIRECTION('',(1.,0.,0.));
#208=DIRECTION('',(0.,0.,1.));
#209=DIRECTION('',(1.,0.,0.));
#210=DIRECTION('',(0.,0.,1.));
#211=DIRECTION('',(1.,0.,0.));
#212=DIRECTION('',(0.,0.,1.));
#213=DIRECTION('',(1.,0.,0.));
#214=DIRECTION('',(0.,0.,1.));
#215=DIRECTION('',(1.,0.,0.));
#216=DIRECTION('',(0.,0.,1.));
#217=DIRECTION('',(1.,0.,0.));
#218=DIRECTION('',(1.,0.,0.));
#219=DIRECTION('',(0.,0.,1.));
#220=DIRECTION('',(1.,0.,0.));
#221=DIRECTION('',(0.,0.,-1.));
#222=DIRECTION('',(-1.,0.,0.));
#223=DIRECTION('',(0.,0.,1.));
#224=DIRECTION('',(1.,0.,0.));
#225=DIRECTION('',(0.,0.,1.));
#226=DIRECTION('',(1.,0.,0.));
#227=DIRECTION('',(0.,0.,1.));
#228=DIRECTION('',(1.,0.,0.));
#229=DIRECTION('',(0.,0.,-1.));
#230=DIRECTION('',(-1.,0.,0.));
#231=DIRECTION('',(0.,0.,1.));
#232=DIRECTION('',(1.,0.,0.));
#233=DIRECTION('',(0.,0.,1.));
#234=DIRECTION('',(1.,0.,0.));
#235=DIRECTION('',(0.,0.,1.));
#236=DIRECTION('',(1.,0.,0.));
#237=DIRECTION('',(0.,0.,1.));
#238=DIRECTION('',(1.,0.,0.));
#239=DIRECTION('',(0.,0.,1.));
#240=DIRECTION('',(1.,0.,0.));
#241=DIRECTION('',(1.,0.,0.));
#242=DIRECTION('',(0.,0.,1.));
#243=DIRECTION('',(1.,0.,0.));
#244=DIRECTION('',(0.,0.,1.));
#245=DIRECTION('',(0.,0.,1.));
#246=DIRECTION('',(0.,-1.,0.));
#247=DIRECTION('',(0.,0.,-1.));
#248=DIRECTION('',(0.,0.,-1.));
#249=DIRECTION('',(-1.,0.,0.));
#250=DIRECTION('',(0.,0.,-1.));
#251=DIRECTION('',(-1.,0.,0.));
#252=CARTESIAN_POINT('',(0.,0.,0.));
#253=CARTESIAN_POINT('',(0.,1.28587913910472E-18,0.019));
#254=CARTESIAN_POINT('',(0.,1.28587913910472E-18,0.019));
#255=CARTESIAN_POINT('',(0.0105,1.28587913910472E-18,0.019));
#256=CARTESIAN_POINT('',(0.,1.28587913910472E-18,0.018));
#257=CARTESIAN_POINT('',(0.0105,1.28587913910472E-18,0.018));
#258=CARTESIAN_POINT('',(0.,0.,0.019));
#259=CARTESIAN_POINT('',(0.,1.10218211923262E-18,0.019));
#260=CARTESIAN_POINT('',(0.009,1.10218211923262E-18,0.019));
#261=CARTESIAN_POINT('',(0.,0.,0.018));
#262=CARTESIAN_POINT('',(-0.00501290700810162,-8.67361737988404E-19,0.018));
#263=CARTESIAN_POINT('',(-0.00331290700810162,-8.67361737988404E-19,0.018));
#264=CARTESIAN_POINT('',(0.00501290700810162,-8.67361737988404E-19,0.018));
#265=CARTESIAN_POINT('',(0.00671290700810162,-8.67361737988404E-19,0.018));
#266=CARTESIAN_POINT('',(0.,-0.0019,0.018));
#267=CARTESIAN_POINT('',(-0.00191833260932509,-0.0019,0.018));
#268=CARTESIAN_POINT('',(0.00191833260932509,-0.0019,0.018));
#269=CARTESIAN_POINT('',(3.08445472543658E-19,-7.58941520739853E-19,0.018));
#270=CARTESIAN_POINT('',(0.,1.10218211923262E-18,0.02));
#271=CARTESIAN_POINT('',(0.,1.10218211923262E-18,0.02));
#272=CARTESIAN_POINT('',(0.009,1.10218211923262E-18,0.02));
#273=CARTESIAN_POINT('',(0.,0.,0.02));
#274=CARTESIAN_POINT('',(0.,9.18485099360515E-19,0.02));
#275=CARTESIAN_POINT('',(0.0075,9.18485099360515E-19,0.02));
#276=CARTESIAN_POINT('',(0.,9.18485099360515E-19,0.024));
#277=CARTESIAN_POINT('',(0.,9.18485099360515E-19,0.024));
#278=CARTESIAN_POINT('',(0.0075,9.18485099360515E-19,0.024));
#279=CARTESIAN_POINT('',(0.,0.,0.024));
#280=CARTESIAN_POINT('',(-0.00501290700810162,-8.67361737988404E-19,0.024));
#281=CARTESIAN_POINT('',(-0.00331290700810162,-8.67361737988404E-19,0.024));
#282=CARTESIAN_POINT('',(0.00501290700810162,-8.67361737988404E-19,0.024));
#283=CARTESIAN_POINT('',(0.00671290700810162,-8.67361737988404E-19,0.024));
#284=CARTESIAN_POINT('',(3.08445472543658E-19,-7.58941520739853E-19,0.024));
#285=CARTESIAN_POINT('',(0.00191833260932509,-0.0019,0.024));
#286=CARTESIAN_POINT('',(-0.00191833260932509,-0.0019,0.024));
#287=CARTESIAN_POINT('',(0.,-0.0019,0.024));
#288=CARTESIAN_POINT('',(3.08445472543658E-19,-7.58941520739853E-19,-0.0149462786614232));
#289=CARTESIAN_POINT('',(0.00191833260932509,-0.0019,-0.0149462786614232));
#290=CARTESIAN_POINT('',(-0.00191833260932509,-0.0019,-0.0149462786614232));
#291=CARTESIAN_POINT('',(0.,-0.0019,-0.0149462786614232));
#292=CARTESIAN_POINT('',(0.00501290700810162,-8.67361737988404E-19,0.025));
#293=CARTESIAN_POINT('',(-0.00501290700810162,-8.67361737988404E-19,0.025));
#294=MECHANICAL_DESIGN_GEOMETRIC_PRESENTATION_REPRESENTATION('',(#165),
#295);
#295=(
GEOMETRIC_REPRESENTATION_CONTEXT(3)
GLOBAL_UNCERTAINTY_ASSIGNED_CONTEXT((#296))
GLOBAL_UNIT_ASSIGNED_CONTEXT((#299,#298,#297))
REPRESENTATION_CONTEXT('Output Hub','TOP_LEVEL_ASSEMBLY_PART')
);
#296=UNCERTAINTY_MEASURE_WITH_UNIT(LENGTH_MEASURE(5.E-6),#299,
'DISTANCE_ACCURACY_VALUE','Maximum Tolerance applied to model');
#297=(
NAMED_UNIT(*)
SI_UNIT($,.STERADIAN.)
SOLID_ANGLE_UNIT()
);
#298=(
NAMED_UNIT(*)
PLANE_ANGLE_UNIT()
SI_UNIT($,.RADIAN.)
);
#299=(
LENGTH_UNIT()
NAMED_UNIT(*)
SI_UNIT($,.METRE.)
);
#300=PRODUCT_DEFINITION_SHAPE('','',#301);
#301=PRODUCT_DEFINITION('','',#303,#302);
#302=PRODUCT_DEFINITION_CONTEXT('',#309,'design');
#303=PRODUCT_DEFINITION_FORMATION_WITH_SPECIFIED_SOURCE('','',#305,
 .NOT_KNOWN.);
#304=PRODUCT_RELATED_PRODUCT_CATEGORY('','',(#305));
#305=PRODUCT('Output Hub','Output Hub','Output Hub',(#307));
#306=PRODUCT_CATEGORY('','');
#307=PRODUCT_CONTEXT('',#309,'mechanical');
#308=APPLICATION_PROTOCOL_DEFINITION('international standard',
'ap242_managed_model_based_3d_engineering',2011,#309);
#309=APPLICATION_CONTEXT('managed model based 3d engineering');
ENDSEC;
END-ISO-10303-21;
