ISO-10303-21;
HEADER;
/* Generated by software containing ST-Developer
 * from STEP Tools, Inc. (www.steptools.com) 
 */
/* OPTION: using custom renumber hook */

FILE_DESCRIPTION(
/* description */ ('STEP AP242',
'CAx-IF Rec.Pracs.---Representation and Presentation of Product Manufa
cturing Information (PMI)---4.0---2014-10-13',
'CAx-IF Rec.Pracs.---3D Tessellated Geometry---0.4---2014-09-14','2;1'),

/* implementation_level */ '2;1');

FILE_NAME(
/* name */ '65d8d6703d8d1747465adc3a',
/* time_stamp */ '2024-02-23T17:31:28Z',
/* author */ (''),
/* organization */ (''),
/* preprocessor_version */ 'ST-DEVELOPER v19.4',
/* originating_system */ '  ',
/* authorisation */ '  ');

FILE_SCHEMA (('AP242_MANAGED_MODEL_BASED_3D_ENGINEERING_MIM_LF { 1 0 10303 442 1 1 4 }'));
ENDSEC;

DATA;
#10=SHAPE_REPRESENTATION_RELATIONSHIP('','',#173,#11);
#11=ADVANCED_BREP_SHAPE_REPRESENTATION('',(#171),#296);
#12=LINE('',#273,#16);
#13=LINE('',#285,#17);
#14=LINE('',#287,#18);
#15=LINE('',#288,#19);
#16=VECTOR('',#218,1.);
#17=VECTOR('',#229,1.);
#18=VECTOR('',#232,1.);
#19=VECTOR('',#233,1.);
#20=PLANE('',#181);
#21=PLANE('',#182);
#22=PLANE('',#186);
#23=PLANE('',#191);
#24=B_SPLINE_CURVE_WITH_KNOTS('',3,(#250,#251,#252,#253,#254,#255,#256,
#257,#258,#259,#260),.UNSPECIFIED.,.T.,.F.,(1,1,1,1,1,1,1,1,1,1,1,1,1,1,
1),(-0.00340761830045702,-0.00227174553363801,-0.00113587276681901,6.5878327500915E-20,
0.00113587276681901,0.00227174553363801,0.00340761830045702,0.00454349106727603,
0.00567936383409503,0.00681523660091404,0.00795110936773305,0.00908698213455205,
0.0102228549013711,0.0113587276681901,0.0124946004350091),.UNSPECIFIED.);
#25=ORIENTED_EDGE('',*,*,#57,.F.);
#26=ORIENTED_EDGE('',*,*,#58,.T.);
#27=ORIENTED_EDGE('',*,*,#59,.F.);
#28=ORIENTED_EDGE('',*,*,#60,.F.);
#29=ORIENTED_EDGE('',*,*,#61,.T.);
#30=ORIENTED_EDGE('',*,*,#58,.F.);
#31=ORIENTED_EDGE('',*,*,#60,.T.);
#32=ORIENTED_EDGE('',*,*,#62,.F.);
#33=ORIENTED_EDGE('',*,*,#63,.F.);
#34=ORIENTED_EDGE('',*,*,#64,.T.);
#35=ORIENTED_EDGE('',*,*,#65,.T.);
#36=ORIENTED_EDGE('',*,*,#61,.F.);
#37=ORIENTED_EDGE('',*,*,#66,.T.);
#38=ORIENTED_EDGE('',*,*,#67,.T.);
#39=ORIENTED_EDGE('',*,*,#68,.F.);
#40=ORIENTED_EDGE('',*,*,#69,.F.);
#41=ORIENTED_EDGE('',*,*,#57,.T.);
#42=ORIENTED_EDGE('',*,*,#70,.T.);
#43=ORIENTED_EDGE('',*,*,#68,.T.);
#44=ORIENTED_EDGE('',*,*,#71,.F.);
#45=ORIENTED_EDGE('',*,*,#65,.F.);
#46=ORIENTED_EDGE('',*,*,#72,.F.);
#47=ORIENTED_EDGE('',*,*,#71,.T.);
#48=ORIENTED_EDGE('',*,*,#69,.T.);
#49=ORIENTED_EDGE('',*,*,#70,.F.);
#50=ORIENTED_EDGE('',*,*,#64,.F.);
#51=ORIENTED_EDGE('',*,*,#72,.T.);
#52=ORIENTED_EDGE('',*,*,#59,.T.);
#53=ORIENTED_EDGE('',*,*,#67,.F.);
#54=ORIENTED_EDGE('',*,*,#63,.T.);
#55=ORIENTED_EDGE('',*,*,#66,.F.);
#56=ORIENTED_EDGE('',*,*,#62,.T.);
#57=EDGE_CURVE('',#73,#73,#87,.T.);
#58=EDGE_CURVE('',#74,#74,#88,.T.);
#59=EDGE_CURVE('',#75,#75,#24,.T.);
#60=EDGE_CURVE('',#76,#76,#89,.T.);
#61=EDGE_CURVE('',#77,#77,#90,.T.);
#62=EDGE_CURVE('',#78,#78,#91,.F.);
#63=EDGE_CURVE('',#79,#79,#92,.F.);
#64=EDGE_CURVE('',#80,#81,#12,.T.);
#65=EDGE_CURVE('',#81,#80,#93,.T.);
#66=EDGE_CURVE('',#82,#82,#94,.F.);
#67=EDGE_CURVE('',#83,#83,#95,.F.);
#68=EDGE_CURVE('',#84,#85,#96,.T.);
#69=EDGE_CURVE('',#85,#84,#13,.T.);
#70=EDGE_CURVE('',#81,#84,#14,.T.);
#71=EDGE_CURVE('',#80,#85,#15,.T.);
#72=EDGE_CURVE('',#86,#86,#97,.F.);
#73=VERTEX_POINT('',#247);
#74=VERTEX_POINT('',#249);
#75=VERTEX_POINT('',#261);
#76=VERTEX_POINT('',#264);
#77=VERTEX_POINT('',#266);
#78=VERTEX_POINT('',#270);
#79=VERTEX_POINT('',#272);
#80=VERTEX_POINT('',#274);
#81=VERTEX_POINT('',#275);
#82=VERTEX_POINT('',#279);
#83=VERTEX_POINT('',#281);
#84=VERTEX_POINT('',#283);
#85=VERTEX_POINT('',#284);
#86=VERTEX_POINT('',#291);
#87=CIRCLE('',#176,0.0075);
#88=CIRCLE('',#177,0.0075);
#89=CIRCLE('',#179,0.009);
#90=CIRCLE('',#180,0.009);
#91=CIRCLE('',#183,0.0017);
#92=CIRCLE('',#184,0.0017);
#93=CIRCLE('',#185,0.0027);
#94=CIRCLE('',#187,0.0017);
#95=CIRCLE('',#188,0.0017);
#96=CIRCLE('',#189,0.0027);
#97=CIRCLE('',#192,0.00145);
#98=EDGE_LOOP('',(#25));
#99=EDGE_LOOP('',(#26));
#100=EDGE_LOOP('',(#27));
#101=EDGE_LOOP('',(#28));
#102=EDGE_LOOP('',(#29));
#103=EDGE_LOOP('',(#30));
#104=EDGE_LOOP('',(#31));
#105=EDGE_LOOP('',(#32));
#106=EDGE_LOOP('',(#33));
#107=EDGE_LOOP('',(#34,#35));
#108=EDGE_LOOP('',(#36));
#109=EDGE_LOOP('',(#37));
#110=EDGE_LOOP('',(#38));
#111=EDGE_LOOP('',(#39,#40));
#112=EDGE_LOOP('',(#41));
#113=EDGE_LOOP('',(#42,#43,#44,#45));
#114=EDGE_LOOP('',(#46));
#115=EDGE_LOOP('',(#47,#48,#49,#50));
#116=EDGE_LOOP('',(#51));
#117=EDGE_LOOP('',(#52));
#118=EDGE_LOOP('',(#53));
#119=EDGE_LOOP('',(#54));
#120=EDGE_LOOP('',(#55));
#121=EDGE_LOOP('',(#56));
#122=FACE_BOUND('',#98,.T.);
#123=FACE_BOUND('',#99,.T.);
#124=FACE_BOUND('',#100,.T.);
#125=FACE_BOUND('',#101,.T.);
#126=FACE_BOUND('',#102,.T.);
#127=FACE_BOUND('',#103,.T.);
#128=FACE_BOUND('',#104,.T.);
#129=FACE_BOUND('',#105,.T.);
#130=FACE_BOUND('',#106,.T.);
#131=FACE_BOUND('',#107,.T.);
#132=FACE_BOUND('',#108,.T.);
#133=FACE_BOUND('',#109,.T.);
#134=FACE_BOUND('',#110,.T.);
#135=FACE_BOUND('',#111,.T.);
#136=FACE_BOUND('',#112,.T.);
#137=FACE_BOUND('',#113,.T.);
#138=FACE_BOUND('',#114,.T.);
#139=FACE_BOUND('',#115,.T.);
#140=FACE_BOUND('',#116,.T.);
#141=FACE_BOUND('',#117,.T.);
#142=FACE_BOUND('',#118,.T.);
#143=FACE_BOUND('',#119,.T.);
#144=FACE_BOUND('',#120,.T.);
#145=FACE_BOUND('',#121,.T.);
#146=CYLINDRICAL_SURFACE('',#175,0.0075);
#147=CYLINDRICAL_SURFACE('',#178,0.009);
#148=CYLINDRICAL_SURFACE('',#190,0.0027);
#149=CYLINDRICAL_SURFACE('',#193,0.00145);
#150=CYLINDRICAL_SURFACE('',#194,0.0017);
#151=CYLINDRICAL_SURFACE('',#195,0.0017);
#152=ADVANCED_FACE('',(#122,#123,#124),#146,.T.);
#153=ADVANCED_FACE('',(#125,#126),#147,.T.);
#154=ADVANCED_FACE('',(#127,#128),#20,.T.);
#155=ADVANCED_FACE('',(#129,#130,#131,#132),#21,.F.);
#156=ADVANCED_FACE('',(#133,#134,#135,#136),#22,.T.);
#157=ADVANCED_FACE('',(#137),#148,.F.);
#158=ADVANCED_FACE('',(#138,#139),#23,.F.);
#159=ADVANCED_FACE('',(#140,#141),#149,.F.);
#160=ADVANCED_FACE('',(#142,#143),#150,.F.);
#161=ADVANCED_FACE('',(#144,#145),#151,.F.);
#162=CLOSED_SHELL('',(#152,#153,#154,#155,#156,#157,#158,#159,#160,#161));
#163=STYLED_ITEM('',(#164),#171);
#164=PRESENTATION_STYLE_ASSIGNMENT((#165));
#165=SURFACE_STYLE_USAGE(.BOTH.,#166);
#166=SURFACE_SIDE_STYLE('',(#167));
#167=SURFACE_STYLE_FILL_AREA(#168);
#168=FILL_AREA_STYLE('',(#169));
#169=FILL_AREA_STYLE_COLOUR('',#170);
#170=COLOUR_RGB('',0.917647058823529,0.917647058823529,0.917647058823529);
#171=MANIFOLD_SOLID_BREP('Disc 2 Hub',#162);
#172=SHAPE_DEFINITION_REPRESENTATION(#301,#173);
#173=SHAPE_REPRESENTATION('Disc 2 Hub',(#174),#296);
#174=AXIS2_PLACEMENT_3D('',#244,#196,#197);
#175=AXIS2_PLACEMENT_3D('',#245,#198,#199);
#176=AXIS2_PLACEMENT_3D('',#246,#200,#201);
#177=AXIS2_PLACEMENT_3D('',#248,#202,#203);
#178=AXIS2_PLACEMENT_3D('',#262,#204,#205);
#179=AXIS2_PLACEMENT_3D('',#263,#206,#207);
#180=AXIS2_PLACEMENT_3D('',#265,#208,#209);
#181=AXIS2_PLACEMENT_3D('',#267,#210,#211);
#182=AXIS2_PLACEMENT_3D('',#268,#212,#213);
#183=AXIS2_PLACEMENT_3D('',#269,#214,#215);
#184=AXIS2_PLACEMENT_3D('',#271,#216,#217);
#185=AXIS2_PLACEMENT_3D('',#276,#219,#220);
#186=AXIS2_PLACEMENT_3D('',#277,#221,#222);
#187=AXIS2_PLACEMENT_3D('',#278,#223,#224);
#188=AXIS2_PLACEMENT_3D('',#280,#225,#226);
#189=AXIS2_PLACEMENT_3D('',#282,#227,#228);
#190=AXIS2_PLACEMENT_3D('',#286,#230,#231);
#191=AXIS2_PLACEMENT_3D('',#289,#234,#235);
#192=AXIS2_PLACEMENT_3D('',#290,#236,#237);
#193=AXIS2_PLACEMENT_3D('',#292,#238,#239);
#194=AXIS2_PLACEMENT_3D('',#293,#240,#241);
#195=AXIS2_PLACEMENT_3D('',#294,#242,#243);
#196=DIRECTION('',(0.,0.,1.));
#197=DIRECTION('',(1.,0.,0.));
#198=DIRECTION('',(0.,0.,-1.));
#199=DIRECTION('',(-1.,0.,0.));
#200=DIRECTION('',(0.,0.,1.));
#201=DIRECTION('',(1.,0.,0.));
#202=DIRECTION('',(0.,0.,1.));
#203=DIRECTION('',(1.,0.,0.));
#204=DIRECTION('',(0.,0.,-1.));
#205=DIRECTION('',(-1.,0.,0.));
#206=DIRECTION('',(0.,0.,1.));
#207=DIRECTION('',(1.,0.,0.));
#208=DIRECTION('',(0.,0.,1.));
#209=DIRECTION('',(1.,0.,0.));
#210=DIRECTION('',(0.,0.,1.));
#211=DIRECTION('',(1.,0.,0.));
#212=DIRECTION('',(0.,0.,1.));
#213=DIRECTION('',(1.,0.,0.));
#214=DIRECTION('',(0.,0.,1.));
#215=DIRECTION('',(1.,0.,0.));
#216=DIRECTION('',(0.,0.,1.));
#217=DIRECTION('',(1.,0.,0.));
#218=DIRECTION('',(1.,0.,0.));
#219=DIRECTION('',(0.,0.,1.));
#220=DIRECTION('',(1.,0.,0.));
#221=DIRECTION('',(0.,0.,1.));
#222=DIRECTION('',(1.,0.,0.));
#223=DIRECTION('',(0.,0.,1.));
#224=DIRECTION('',(1.,0.,0.));
#225=DIRECTION('',(0.,0.,1.));
#226=DIRECTION('',(1.,0.,0.));
#227=DIRECTION('',(0.,0.,1.));
#228=DIRECTION('',(1.,0.,0.));
#229=DIRECTION('',(1.,0.,0.));
#230=DIRECTION('',(0.,0.,1.));
#231=DIRECTION('',(1.,0.,0.));
#232=DIRECTION('',(0.,0.,1.));
#233=DIRECTION('',(0.,0.,1.));
#234=DIRECTION('',(0.,-1.,0.));
#235=DIRECTION('',(0.,0.,-1.));
#236=DIRECTION('',(0.,-1.,0.));
#237=DIRECTION('',(0.,0.,-1.));
#238=DIRECTION('',(0.,-1.,0.));
#239=DIRECTION('',(0.,0.,-1.));
#240=DIRECTION('',(0.,0.,-1.));
#241=DIRECTION('',(-1.,0.,0.));
#242=DIRECTION('',(0.,0.,-1.));
#243=DIRECTION('',(-1.,0.,0.));
#244=CARTESIAN_POINT('',(0.,0.,0.));
#245=CARTESIAN_POINT('',(0.,-0.001607,0.018));
#246=CARTESIAN_POINT('',(0.,-0.001607,0.018));
#247=CARTESIAN_POINT('',(0.0075,-0.001607,0.018));
#248=CARTESIAN_POINT('',(0.,-0.001607,0.013));
#249=CARTESIAN_POINT('',(0.0075,-0.001607,0.013));
#250=CARTESIAN_POINT('',(-0.00113745560798457,-0.00903675124534007,0.013739765894244));
#251=CARTESIAN_POINT('',(2.57605421065692E-7,-0.009142094187205,0.0132676925485667));
#252=CARTESIAN_POINT('',(0.0011364251863003,-0.00903687200583993,0.0137394639114894));
#253=CARTESIAN_POINT('',(0.00160676656116404,-0.00892981089580575,0.0148735188551111));
#254=CARTESIAN_POINT('',(0.00113650704955575,-0.0090368756392106,0.0160113187729894));
#255=CARTESIAN_POINT('',(5.00665289790235E-7,-0.0091420009058532,0.0164815682712604));
#256=CARTESIAN_POINT('',(-0.00113500875840389,-0.0090371206011914,0.0160124074375626));
#257=CARTESIAN_POINT('',(-0.00160688333390292,-0.00892977988378716,0.0148760375131855));
#258=CARTESIAN_POINT('',(-0.00113745560798457,-0.00903675124534007,0.013739765894244));
#259=CARTESIAN_POINT('',(2.57605421065692E-7,-0.009142094187205,0.0132676925485667));
#260=CARTESIAN_POINT('',(0.0011364251863003,-0.00903687200583993,0.0137394639114894));
#261=CARTESIAN_POINT('',(-6.34583180582386E-20,-0.009107,0.013425));
#262=CARTESIAN_POINT('',(0.,-0.001607,0.013));
#263=CARTESIAN_POINT('',(0.,-0.001607,0.013));
#264=CARTESIAN_POINT('',(0.009,-0.001607,0.013));
#265=CARTESIAN_POINT('',(0.,-0.001607,0.01175));
#266=CARTESIAN_POINT('',(0.009,-0.001607,0.01175));
#267=CARTESIAN_POINT('',(0.,0.,0.013));
#268=CARTESIAN_POINT('',(0.,0.,0.01175));
#269=CARTESIAN_POINT('',(-0.00501290700810162,-8.67361737988404E-19,0.01175));
#270=CARTESIAN_POINT('',(-0.00331290700810162,-8.67361737988404E-19,0.01175));
#271=CARTESIAN_POINT('',(0.00501290700810162,-8.67361737988404E-19,0.01175));
#272=CARTESIAN_POINT('',(0.00671290700810162,-8.67361737988404E-19,0.01175));
#273=CARTESIAN_POINT('',(0.,-0.0019,0.01175));
#274=CARTESIAN_POINT('',(-0.00191833260932509,-0.0019,0.01175));
#275=CARTESIAN_POINT('',(0.00191833260932509,-0.0019,0.01175));
#276=CARTESIAN_POINT('',(3.08445472543658E-19,-7.58941520739853E-19,0.01175));
#277=CARTESIAN_POINT('',(0.,0.,0.018));
#278=CARTESIAN_POINT('',(-0.00501290700810162,-8.67361737988404E-19,0.018));
#279=CARTESIAN_POINT('',(-0.00331290700810162,-8.67361737988404E-19,0.018));
#280=CARTESIAN_POINT('',(0.00501290700810162,-8.67361737988404E-19,0.018));
#281=CARTESIAN_POINT('',(0.00671290700810162,-8.67361737988404E-19,0.018));
#282=CARTESIAN_POINT('',(3.08445472543658E-19,-7.58941520739853E-19,0.018));
#283=CARTESIAN_POINT('',(0.00191833260932509,-0.0019,0.018));
#284=CARTESIAN_POINT('',(-0.00191833260932509,-0.0019,0.018));
#285=CARTESIAN_POINT('',(0.,-0.0019,0.018));
#286=CARTESIAN_POINT('',(3.08445472543658E-19,-7.58941520739853E-19,-0.0149462786614232));
#287=CARTESIAN_POINT('',(0.00191833260932509,-0.0019,-0.0149462786614232));
#288=CARTESIAN_POINT('',(-0.00191833260932509,-0.0019,-0.0149462786614232));
#289=CARTESIAN_POINT('',(0.,-0.0019,-0.0149462786614232));
#290=CARTESIAN_POINT('',(-1.31271504196173E-19,-0.0019,0.014875));
#291=CARTESIAN_POINT('',(-1.31271504196173E-19,-0.0019,0.013425));
#292=CARTESIAN_POINT('',(-1.31271504196173E-19,0.,0.014875));
#293=CARTESIAN_POINT('',(0.00501290700810162,-8.67361737988404E-19,0.025));
#294=CARTESIAN_POINT('',(-0.00501290700810162,-8.67361737988404E-19,0.025));
#295=MECHANICAL_DESIGN_GEOMETRIC_PRESENTATION_REPRESENTATION('',(#163),
#296);
#296=(
GEOMETRIC_REPRESENTATION_CONTEXT(3)
GLOBAL_UNCERTAINTY_ASSIGNED_CONTEXT((#297))
GLOBAL_UNIT_ASSIGNED_CONTEXT((#300,#299,#298))
REPRESENTATION_CONTEXT('Disc 2 Hub','TOP_LEVEL_ASSEMBLY_PART')
);
#297=UNCERTAINTY_MEASURE_WITH_UNIT(LENGTH_MEASURE(5.E-6),#300,
'DISTANCE_ACCURACY_VALUE','Maximum Tolerance applied to model');
#298=(
NAMED_UNIT(*)
SI_UNIT($,.STERADIAN.)
SOLID_ANGLE_UNIT()
);
#299=(
NAMED_UNIT(*)
PLANE_ANGLE_UNIT()
SI_UNIT($,.RADIAN.)
);
#300=(
LENGTH_UNIT()
NAMED_UNIT(*)
SI_UNIT($,.METRE.)
);
#301=PRODUCT_DEFINITION_SHAPE('','',#302);
#302=PRODUCT_DEFINITION('','',#304,#303);
#303=PRODUCT_DEFINITION_CONTEXT('',#310,'design');
#304=PRODUCT_DEFINITION_FORMATION_WITH_SPECIFIED_SOURCE('','',#306,
 .NOT_KNOWN.);
#305=PRODUCT_RELATED_PRODUCT_CATEGORY('','',(#306));
#306=PRODUCT('Disc 2 Hub','Disc 2 Hub','Disc 2 Hub',(#308));
#307=PRODUCT_CATEGORY('','');
#308=PRODUCT_CONTEXT('',#310,'mechanical');
#309=APPLICATION_PROTOCOL_DEFINITION('international standard',
'ap242_managed_model_based_3d_engineering',2011,#310);
#310=APPLICATION_CONTEXT('managed model based 3d engineering');
ENDSEC;
END-ISO-10303-21;
