ISO-10303-21;
HEADER;
/* Generated by software containing ST-Developer
 * from STEP Tools, Inc. (www.steptools.com) 
 */
/* OPTION: using custom renumber hook */

FILE_DESCRIPTION(
/* description */ ('STEP AP242',
'CAx-IF Rec.Pracs.---Representation and Presentation of Product Manufa
cturing Information (PMI)---4.0---2014-10-13',
'CAx-IF Rec.Pracs.---3D Tessellated Geometry---0.4---2014-09-14','2;1'),

/* implementation_level */ '2;1');

FILE_NAME(
/* name */ '65da35eb3c7fd950609fd150',
/* time_stamp */ '2024-02-24T18:31:07Z',
/* author */ (''),
/* organization */ (''),
/* preprocessor_version */ 'ST-DEVELOPER v19.4',
/* originating_system */ '  ',
/* authorisation */ '  ');

FILE_SCHEMA (('AP242_MANAGED_MODEL_BASED_3D_ENGINEERING_MIM_LF { 1 0 10303 442 1 1 4 }'));
ENDSEC;

DATA;
#10=SHAPE_REPRESENTATION_RELATIONSHIP('','',#100,#11);
#11=ADVANCED_BREP_SHAPE_REPRESENTATION('',(#98),#169);
#12=CONICAL_SURFACE('',#115,0.003,0.785398163397462);
#13=PLANE('',#108);
#14=PLANE('',#110);
#15=PLANE('',#114);
#16=ORIENTED_EDGE('',*,*,#30,.F.);
#17=ORIENTED_EDGE('',*,*,#31,.T.);
#18=ORIENTED_EDGE('',*,*,#32,.F.);
#19=ORIENTED_EDGE('',*,*,#33,.T.);
#20=ORIENTED_EDGE('',*,*,#34,.T.);
#21=ORIENTED_EDGE('',*,*,#30,.T.);
#22=ORIENTED_EDGE('',*,*,#31,.F.);
#23=ORIENTED_EDGE('',*,*,#32,.T.);
#24=ORIENTED_EDGE('',*,*,#35,.T.);
#25=ORIENTED_EDGE('',*,*,#36,.F.);
#26=ORIENTED_EDGE('',*,*,#33,.F.);
#27=ORIENTED_EDGE('',*,*,#36,.T.);
#28=ORIENTED_EDGE('',*,*,#34,.F.);
#29=ORIENTED_EDGE('',*,*,#35,.F.);
#30=EDGE_CURVE('',#37,#37,#44,.T.);
#31=EDGE_CURVE('',#38,#38,#45,.T.);
#32=EDGE_CURVE('',#39,#39,#46,.T.);
#33=EDGE_CURVE('',#40,#40,#47,.T.);
#34=EDGE_CURVE('',#41,#41,#48,.F.);
#35=EDGE_CURVE('',#42,#42,#49,.T.);
#36=EDGE_CURVE('',#43,#43,#50,.T.);
#37=VERTEX_POINT('',#149);
#38=VERTEX_POINT('',#151);
#39=VERTEX_POINT('',#154);
#40=VERTEX_POINT('',#156);
#41=VERTEX_POINT('',#159);
#42=VERTEX_POINT('',#163);
#43=VERTEX_POINT('',#165);
#44=CIRCLE('',#103,0.004);
#45=CIRCLE('',#104,0.004);
#46=CIRCLE('',#106,0.0025);
#47=CIRCLE('',#107,0.0025);
#48=CIRCLE('',#109,0.0034);
#49=CIRCLE('',#112,0.003);
#50=CIRCLE('',#113,0.003);
#51=EDGE_LOOP('',(#16));
#52=EDGE_LOOP('',(#17));
#53=EDGE_LOOP('',(#18));
#54=EDGE_LOOP('',(#19));
#55=EDGE_LOOP('',(#20));
#56=EDGE_LOOP('',(#21));
#57=EDGE_LOOP('',(#22));
#58=EDGE_LOOP('',(#23));
#59=EDGE_LOOP('',(#24));
#60=EDGE_LOOP('',(#25));
#61=EDGE_LOOP('',(#26));
#62=EDGE_LOOP('',(#27));
#63=EDGE_LOOP('',(#28));
#64=EDGE_LOOP('',(#29));
#65=FACE_BOUND('',#51,.T.);
#66=FACE_BOUND('',#52,.T.);
#67=FACE_BOUND('',#53,.T.);
#68=FACE_BOUND('',#54,.T.);
#69=FACE_BOUND('',#55,.T.);
#70=FACE_BOUND('',#56,.T.);
#71=FACE_BOUND('',#57,.T.);
#72=FACE_BOUND('',#58,.T.);
#73=FACE_BOUND('',#59,.T.);
#74=FACE_BOUND('',#60,.T.);
#75=FACE_BOUND('',#61,.T.);
#76=FACE_BOUND('',#62,.T.);
#77=FACE_BOUND('',#63,.T.);
#78=FACE_BOUND('',#64,.T.);
#79=CYLINDRICAL_SURFACE('',#102,0.004);
#80=CYLINDRICAL_SURFACE('',#105,0.0025);
#81=CYLINDRICAL_SURFACE('',#111,0.003);
#82=ADVANCED_FACE('',(#65,#66),#79,.T.);
#83=ADVANCED_FACE('',(#67,#68),#80,.F.);
#84=ADVANCED_FACE('',(#69,#70),#13,.T.);
#85=ADVANCED_FACE('',(#71,#72),#14,.F.);
#86=ADVANCED_FACE('',(#73,#74),#81,.T.);
#87=ADVANCED_FACE('',(#75,#76),#15,.T.);
#88=ADVANCED_FACE('',(#77,#78),#12,.T.);
#89=CLOSED_SHELL('',(#82,#83,#84,#85,#86,#87,#88));
#90=STYLED_ITEM('',(#91),#98);
#91=PRESENTATION_STYLE_ASSIGNMENT((#92));
#92=SURFACE_STYLE_USAGE(.BOTH.,#93);
#93=SURFACE_SIDE_STYLE('',(#94));
#94=SURFACE_STYLE_FILL_AREA(#95);
#95=FILL_AREA_STYLE('',(#96));
#96=FILL_AREA_STYLE_COLOUR('',#97);
#97=COLOUR_RGB('',0.647058823529412,0.647058823529412,0.647058823529412);
#98=MANIFOLD_SOLID_BREP('8x5x0.5 Spacer',#89);
#99=SHAPE_DEFINITION_REPRESENTATION(#174,#100);
#100=SHAPE_REPRESENTATION('8x5x0.5 Spacer',(#101),#169);
#101=AXIS2_PLACEMENT_3D('',#146,#116,#117);
#102=AXIS2_PLACEMENT_3D('',#147,#118,#119);
#103=AXIS2_PLACEMENT_3D('',#148,#120,#121);
#104=AXIS2_PLACEMENT_3D('',#150,#122,#123);
#105=AXIS2_PLACEMENT_3D('',#152,#124,#125);
#106=AXIS2_PLACEMENT_3D('',#153,#126,#127);
#107=AXIS2_PLACEMENT_3D('',#155,#128,#129);
#108=AXIS2_PLACEMENT_3D('',#157,#130,#131);
#109=AXIS2_PLACEMENT_3D('',#158,#132,#133);
#110=AXIS2_PLACEMENT_3D('',#160,#134,#135);
#111=AXIS2_PLACEMENT_3D('',#161,#136,#137);
#112=AXIS2_PLACEMENT_3D('',#162,#138,#139);
#113=AXIS2_PLACEMENT_3D('',#164,#140,#141);
#114=AXIS2_PLACEMENT_3D('',#166,#142,#143);
#115=AXIS2_PLACEMENT_3D('',#167,#144,#145);
#116=DIRECTION('',(0.,0.,1.));
#117=DIRECTION('',(1.,0.,0.));
#118=DIRECTION('',(0.,0.,-1.));
#119=DIRECTION('',(-1.,0.,0.));
#120=DIRECTION('',(0.,0.,1.));
#121=DIRECTION('',(1.,0.,0.));
#122=DIRECTION('',(0.,0.,1.));
#123=DIRECTION('',(1.,0.,0.));
#124=DIRECTION('',(0.,0.,-1.));
#125=DIRECTION('',(-1.,0.,0.));
#126=DIRECTION('',(0.,0.,1.));
#127=DIRECTION('',(1.,0.,0.));
#128=DIRECTION('',(0.,0.,1.));
#129=DIRECTION('',(1.,0.,0.));
#130=DIRECTION('',(0.,0.,1.));
#131=DIRECTION('',(1.,0.,0.));
#132=DIRECTION('',(0.,0.,1.));
#133=DIRECTION('',(1.,0.,0.));
#134=DIRECTION('',(0.,0.,1.));
#135=DIRECTION('',(1.,0.,0.));
#136=DIRECTION('',(0.,0.,-1.));
#137=DIRECTION('',(-1.,0.,0.));
#138=DIRECTION('',(0.,0.,1.));
#139=DIRECTION('',(1.,0.,0.));
#140=DIRECTION('',(0.,0.,1.));
#141=DIRECTION('',(1.,0.,0.));
#142=DIRECTION('',(0.,0.,1.));
#143=DIRECTION('',(1.,0.,0.));
#144=DIRECTION('',(0.,0.,-1.));
#145=DIRECTION('',(-1.,0.,0.));
#146=CARTESIAN_POINT('',(0.,0.,0.));
#147=CARTESIAN_POINT('',(-0.21,0.14,0.0005));
#148=CARTESIAN_POINT('',(-0.21,0.14,0.0005));
#149=CARTESIAN_POINT('',(-0.206,0.14,0.0005));
#150=CARTESIAN_POINT('',(-0.21,0.14,0.));
#151=CARTESIAN_POINT('',(-0.206,0.14,0.));
#152=CARTESIAN_POINT('',(-0.21,0.14,0.0005));
#153=CARTESIAN_POINT('',(-0.21,0.14,0.));
#154=CARTESIAN_POINT('',(-0.2075,0.14,0.));
#155=CARTESIAN_POINT('',(-0.21,0.14,0.0015));
#156=CARTESIAN_POINT('',(-0.2075,0.14,0.0015));
#157=CARTESIAN_POINT('',(-0.21,0.14,0.0005));
#158=CARTESIAN_POINT('',(-0.21,0.14,0.0005));
#159=CARTESIAN_POINT('',(-0.2066,0.14,0.0005));
#160=CARTESIAN_POINT('',(-0.21,0.14,0.));
#161=CARTESIAN_POINT('',(-0.21,0.14,0.0015));
#162=CARTESIAN_POINT('',(-0.21,0.14,0.0009));
#163=CARTESIAN_POINT('',(-0.207,0.14,0.0009));
#164=CARTESIAN_POINT('',(-0.21,0.14,0.0015));
#165=CARTESIAN_POINT('',(-0.207,0.14,0.0015));
#166=CARTESIAN_POINT('',(-0.21,0.14,0.0015));
#167=CARTESIAN_POINT('',(-0.21,0.14,0.0009));
#168=MECHANICAL_DESIGN_GEOMETRIC_PRESENTATION_REPRESENTATION('',(#90),#169);
#169=(
GEOMETRIC_REPRESENTATION_CONTEXT(3)
GLOBAL_UNCERTAINTY_ASSIGNED_CONTEXT((#170))
GLOBAL_UNIT_ASSIGNED_CONTEXT((#173,#172,#171))
REPRESENTATION_CONTEXT('8x5x0.5 Spacer','TOP_LEVEL_ASSEMBLY_PART')
);
#170=UNCERTAINTY_MEASURE_WITH_UNIT(LENGTH_MEASURE(5.E-6),#173,
'DISTANCE_ACCURACY_VALUE','Maximum Tolerance applied to model');
#171=(
NAMED_UNIT(*)
SI_UNIT($,.STERADIAN.)
SOLID_ANGLE_UNIT()
);
#172=(
NAMED_UNIT(*)
PLANE_ANGLE_UNIT()
SI_UNIT($,.RADIAN.)
);
#173=(
LENGTH_UNIT()
NAMED_UNIT(*)
SI_UNIT($,.METRE.)
);
#174=PRODUCT_DEFINITION_SHAPE('','',#175);
#175=PRODUCT_DEFINITION('','',#177,#176);
#176=PRODUCT_DEFINITION_CONTEXT('',#183,'design');
#177=PRODUCT_DEFINITION_FORMATION_WITH_SPECIFIED_SOURCE('','',#179,
 .NOT_KNOWN.);
#178=PRODUCT_RELATED_PRODUCT_CATEGORY('','',(#179));
#179=PRODUCT('8x5x0.5 Spacer','8x5x0.5 Spacer','8x5x0.5 Spacer',(#181));
#180=PRODUCT_CATEGORY('','');
#181=PRODUCT_CONTEXT('',#183,'mechanical');
#182=APPLICATION_PROTOCOL_DEFINITION('international standard',
'ap242_managed_model_based_3d_engineering',2011,#183);
#183=APPLICATION_CONTEXT('managed model based 3d engineering');
ENDSEC;
END-ISO-10303-21;
